Oops, an error
Loading. Please wait.

Before They Make Me Run Tab

version 2
version 2

Whole song

Interactive

4,502 views 12 this week
no commentswrite comment
1 2 3 4 5
accurate
x 3
add to favorites
launch autoscroll
font size
0
reset
how to read this tab
guitar tuner
Tab Pro tools
  • play this tab
  • loop segment
  • change instrument
  • show fretboard
  • metronome
×
Best way to learn
"Before They Make Me Run"
Autoscroll
slow
fast
+/-
esc
set tempo
stop
Contributor
Difficulty
Tuning
intermediate
D G D G B D
-------------------------------------------------------------------------------
	           BEFORE THEY MAKE ME RUN - The Rolling Stones
-------------------------------------------------------------------------------

Tabbed by: ironmanben
Email: bentrooper@gmail.com
 
Tuning:  guitar 1 - d B G D G (5-string open G tuning)
	 guitar 2 - d B G D G
	 guitar 3 - e B G D A E
 
guitar 1 - rhythm - Keith Richards
guitar 2 - acoustic rhythm - Keith Richards (this is basically 
the guitar 1 part played on acoustic under the electric guitars, 
although it plays some rhythms differently.  I'm not going to 
tab it because it's so similar to the guitar 1 part, 
I just mention it because it's there.)
guitar 3 - slide - Ronnie Wood


Guitar 1 (and 2):

Intro:
d|-12--12--------------5---5-7-----------------------------------|
B|-12--121312------0---5---5-7-----------------------------------|
G|-12--121212--12--0---5---5-7---0-------------------------0-----|
D|-12--121412--9---0---5---5-7---0----------5-4/5~---------0-----|
G|-12----1212--9-------5---5-7---0------0-/4---------------------|



Verse 1:
d|---------------------------------|----------------------------|
B|-10--10------------------5-5-----|-10--10---------------------|
G|-10--10--9-0-9-5---5-5---5-5-5---|-10--10--9-0-9-5------5-3---|
D|-10--10--9-0-9-5---5-5---5-5-5---|-10--10--9-0-9-5------5-3---|
G|-10--10--9-0-9-5---5-5---5-5-5---|-10--10--9-0-9-5------5-3---|

 | x2              | x1                              |
d|-----------------|---------------------------5-----|
A|-----------------|---------------------------3-----|
G|-0-0---0---3^3^3^|-0-0-----------------------------|
D|-0-0---0---3^3^3^|-0-0---0-3h5-5-------------------|
G|-----------------|---------------------------------|

d|---------------------------------|----------------------------|
B|-10--10------------------5-5-----|-10--10---------------------|
G|-10--10--9-0-9-5---5-5---5-5-5---|-10--10--9-0-9-5------5-3---|
D|-10--10--9-0-9-5---5-5---5-5-5---|-10--10--9-0-9-5------5-3---|
G|-10--10--9-0-9-5---5-5---5-5-5---|-10--10--9-0-9-5------5-3---|

d|--------------------------------------------------0-------------|
B|----------------------------------------------0-0-0-0-0-7---7---|
G|-0---0------------0---0-0-----0-0-------------0-0-0-0-0-7-7-7---|
D|-0---0------------0---0-0-----0-0-------------0-0-0-0-0-7-7-7---|
G|-0---0---0-3^p0---0---0-0-----0-0-------------0-0-0-0---7-7-7---|



Chorus 1:
d|-12--12------------------------|-----12--12----------0-------------|
B|-12--121312------0---------7---|-----12--121312------0---7---8-7-7-|
G|-12--121212--12--0---7---7-7---|-----12--121212--12--0---7---7-7-7-|
D|-12--121412--9---0---7---7-7---|-----12--121412--9---0---7---9-7-7-|
G|-12----1212--9-------7---7-7---|-----12----1212--9-----------------|

d|-12--12--------------5---5-7-----------------5-----------------|
B|-12--121312------0---5---5-7-----------------3---0---0-7-7-7---|
G|-12--121212--12--0---5---5-7---0-----------------0---0-7-7-7---|
D|-12--121412--9---0---5---5-7---0-----------------0---0-7-7-7---|
G|-12----1212--9-------5---5-7---0-------------------------------|

d|-12--12----------0-------------|-----12--12----------0-----------7-|
B|-12--121312------0---7---8-7-7-|-----12--121312------0---7---8-7-7-|
G|-12--121212--12--0---7---7-7-7-|-----12--121212--12--0---7---7-7-7-|
D|-12--121412--9---0---7---9-7-7-|-----12--121412--9---0---7---9-7---|
G|-12----1212--9-------7---------|-----12----1212--9-----------------|

d|-12--12--------------5---5-7-----------------------------------|
B|-12--121312------0---5---5-7-----------------------------------|
G|-12--121212--12--0---5---5-7---0-------------------------0-----|
D|-12--121412--9---0---5---5-7---0----------5-4/5~---------0-----|
G|-12----1212--9-------5---5-7---0------0-/4---------------------|



Verse 2:
d|---------------------------------|----------------------------|
B|-10--10------------------5-5-----|-10--10---------------------|
G|-10--10--9-0-9-5---5-5---5-5-5---|-10--10--9-0-9-5------5-3---|
D|-10--10--9-0-9-5---5-5---5-5-5---|-10--10--9-0-9-5------5-3---|
G|-10--10--9-0-9-5---5-5---5-5-5---|-10--10--9-0-9-5------5-3---|

d|-----------------------------------------------------------------|
B|----------------------------------0-----3---0-1---0--------------|
G|-0-----0---3^3^3^-0-----0---------0-----0---0-0---0-----0--0-0-0-|
D|-0-----0---3^3^3^-0-----0---------0-----0---0-0---0-----0--0-0-0-|
G|-0----------------------0----------------------------------0-0-0-|

d|---------------------------------|---------------------------------|
B|-10--10------------------6p5-----|-101010--------------------------|
G|-10--10--9-0-9-5---555---5---5---|-101010--9-0-9-5---5-5---5-3-3-3-|
D|-10--10--9-0-9-5---555---7p5-5---|-101010--9-0-9-5---5-5---5-3-3-3-|
G|-10--10--9-0-9-5---555---5---5---|-101010--9-0-9-5---5-5---5-3-3-3-|

d|-------------------------------------------------------------------|
B|---------------------------------------------0---0-0-----7-7-7-----|
G|-0-----3^--3^3^3^3^3^0-3-0-0-----0-0---------0-0-0-0---0-7-7-7-----|
D|-0-----3^--3^3^3^--3^0-3-0-0-----0-0---3^--3-0-0-0-0---0-7-7-7-----|
G|-0-----------------------0-0-----0-0---3^--3-0-0-0-0-3p0-7-7-7-----|


Chorus 2:
d|-12--12----------0-------------|-----12--12----------0-----------7-|
B|-12--121312------0---7---8-7-7-|-----12--121312------0---7---8-7-7-|
G|-12--121212--12--0---7---7-7-7-|-----12--121212--12--0---7---7-7-7-|
D|-12--121412--9---0---7---9-7-7-|-----12--121412--9---0---7---9-7---|
G|-12----1212--9-------7---------|-----12----1212--9-----------------|

d|-12--12--------------5---5-7-----------------------------------|
B|-12--121312------0---5---5-7-----------------------------------|
G|-12--121212--12--0---5---5-7---0-------------------------0-----|
D|-12--121412--9---0---5---5-7---0----------5-4/5~---------0-----|
G|-12----1212--9-------5---5-7---0------0-/4---------------------|


Bridge:
(This is the part under the whole Ronnie Wood pedal steel guitar solo.)
d|----------------------------------------------------------------|
B|----------------------------------------------------------------|
G|-0-----0-----7-7---------------10---------------5---5-5---5-5---|
D|-0-----0-----7-7---------------10---------------5---5-5---5-5---|
G|-0-----0-----7-7---------------10---------------5---5-5---5-5---|

d|----------------------------------------------------------------|
B|----------------------------------------------------------------|
G|-0-----0-----7-7---------------1010----1010-----5---5-5---5-5---|
D|-0-----0-----7-7---------------1010----1010-----5---5-5---5-5---|
G|-0-----0-----7-7---------------1010----1010-----5---5-5---5-5---|

d|-------------------------------------------------------------------|
B|-------------------------------------------------------------------|
G|-0-----0-----7-7---------------1010----1010----5---5-5---5-7-7---7-|
D|-0-----0-----7-7---------------1010----1010----5---5-5---5-7-7---7-|
G|-0-----0-----7-7---------------1010----1010----5---5-5---5-7-7---7-|



Chorus 3:
d|-12--12------------------------|-----12--12----------0---------7---|
B|-12--121312------0---7---8-7-7-|-----12--121312------0---7---8-7---|
G|-12--121212--12--0---7---7-7-7-|-----12--121212--12--0---7---7-7---|
D|-12--121412--9---0---7---9-7-7-|-----12--121412--9---0---7---9-----|
G|-12----1212--9-------7---------|-----12----1212--9-----------------|

d|-12-12-12----------------5---7-------|
B|-12-12-12-13-12----------5---7-------|
G|-12-12-12-12-12--12--0---5---7---000-|
D|-12-12-12-14-12--9---0---5---7---000-|
G|-12-12-12-12-12--9-------5---7---000-|

d|-12-12-12----------------5---5-7-7---|
B|-12-12-12-13-12----------5---5-7-7---|
G|-12-12-12-12-12--12--0---5---5-7-7---|
D|-12-12-12-14-12--9---0---5---5-7-7---|
G|-12-12-12-12-12--9-------5---5-7-7---|

d|-12-12-12----------------5---5-7-7---|
B|-12-12-12-13-12----------5---5-7-7---|
G|-12-12-12-12-12--12--0---5---5-7-7---|
D|-12-12-12-14-12--9---0---5---5-7-7---|
G|-12-12-12-12-12--9-------5---5-7-7---|

d|-12--12--------------5---5-7-----------------------------------|
B|-12--121312------0---5---5-7-----------------------------------|
G|-12--121212--12--0---5---5-7---0-------------0---0---0-7-7-7-7-|
D|-12--121412--9---0---5---5-7---0-------------0---0---0-7-7-7-7-|
G|-12----1212--9-------5---5-7---0-------------0---0---0-7-7-7-7-|

d|---12--12------------------------|-----12--12----------0---------7---|
B|---12--121312------0---7---8-7-7-|-----12--121312------0---7---8-7---|
G|-0-12--121212--12--0---7---7-7-7-|---0-12--121212--12--0---7---7-7---|
D|-0-12--121412--9---0---7---9-7-7-|---0-12--121412--9---0---7---9-----|
G|-0-12----1212--9-------7---7-7-7-|---0-12----1212--9-----------------|

d|-----12--12--------------5---5-7-----------------------------------|
B|-----12--121312------0---5---5-7-----------------------------------|
G|-0---12--121212--12--0---5---5-7---0---0---0-0---0---0---5-7-7-7-7-|
D|-0---12--121412--9---0---5---5-7---0---0---0-0---0---0---5-7-7-7-7-|
G|-0---12----1212--9-------5---5-7---0---0---0-0---0---0-----7-7-7-7-|

d|-12--12--------------5---5-7-----------------------------------|
B|-12--121312------0---5---5-7-----------------------------------|
G|-12--121212--12--0---5---5-7---0---------------7-7-7-7-7-7-7-7-|
D|-12--121412--9---0---5---5-7---0---------------7-7-7-7-7-7-7-7-|
G|-12----1212--9-------5---5-7---0---------------7-7-7-7-7-7-7-7-|

d|-12--12--------------5---5-7-----------------------------------|
B|-12--121312------0---5---5-7-----------------------------------|
G|-12--121212--12--0---5---5-7---0-------------0---12--0-7-7-7-7-|
D|-12--121412--9---0---5---5-7---0-------------0---9---0-7-7-7-7-|
G|-12----1212--9-------5---5-7---0-------------0---9---0-7-7-7-7-|

d|-12--12--------------5---5-7---------------------5-------------|
B|-12--121312------0---5---5-7---0-----------------3-------------|
G|-12--121212--12--0---5---5-7---0---------0---0-------0-7---7---|
D|-12--121412--9---0---5---5-7---0---------0---0-------0-7---7---|
G|-12----1212--9-------5---5-7---0---------0---0-------0-7---7---|

d|-12--12--------------5---5-7-----------------0-----------------|
B|-12--121312------0---5---5-7---0-------------0-----------------|
G|-12--121212--12--0---5---5-7---0-------------0---------7-7-7---|
D|-12--121412--9---0---5---5-7-0-0-------------0-------0-7-7-7---|
G|-12----1212--9-------5---5-7-0-0-------------0-------0-7-7-7---|

d|-12--12--------------5---5-7-------|
B|-12--121312------0---5---5-7---0---|
G|-12--121212--12--0---5---5-7---0---| FADE OUT
D|-12--121412--9---0---5---5-7---0---|
G|-12----1212--9-------5---5-7---0---|







Some of the lead licks:
(Guitar 3:)

1:31
e|--------------------------------------------------------------------|
B|---------------------------------------------/12--12----------------|
G|/3/3/3/3-3-3^-0---0/3/3/3/3-0-3^-0-0----0-0--/12--12(12)(12)~~~/11~-|
D|---------------------------------------------/12--12----------------|
A|--------------------------------------------------------------------|
E|--------------------------------------------------------------------|


1:51

e|/10---/10--/10---------|
B|/12---/12--/12\10-7\---|
G|/12---/12---------7\-0-|
D|------------------7\-0-|
A|-----------------------|
E|-----------------------|


2:12
e|----15-15-------------------------------------|
B|-17^-------17pbr(19)-15---------15------------|
G|-------------------------14^(16)--14br(16)-12-|
D|----------------------------------------------|
A|----------------------------------------------|
E|----------------------------------------------|


2:36
e|------------------------------------------------------|
B|--------12-------12-------12-15-----------------------|
G|-14^(16)--14^(16)--14^(16)------14^(16)-14p12----12---|
D|---------------------------------------------14-------|
A|------------------------------------------------------|
E|------------------------------------------------------|


2:42
e|---13^(15)-----12------|
B|------------12----15---|
G|-----------------------|
D|-----------------------|
A|-----------------------|
E|-----------------------|


2:49
e|-13^(15)-12----12---15-15---|
B|------------15--------------|
G|----------------------------|
D|----------------------------|
A|----------------------------|
E|----------------------------|


2:51
e|-15----15--12-10----------12------------|
B|---15-----------------------------------|
G|-----------------14^(16)-----14p12--12~-|
D|----------------------------------14----|
A|----------------------------------------|
E|----------------------------------------|


2:57
e|---------15---------------------------|
B|-15^(17)---15pb(17)r(15)---14^(16)----|
G|---------------------------14^(16)----|
D|--------------------------------------|
A|--------------------------------------|
E|--------------------------------------|

e|--------15------------12-----------|
B|-15^(17)--17\15/17--12--15p12------|
G|-----------------------------14-12-|
D|-----------------------------------|
A|-----------------------------------|
E|-----------------------------------|


3:02
e|--------------------------------------|
B|--------------------------------------|
G|---------------12-----12----14^(16)---|
D|------12--12h14----14----12-----------|
A|-12h14--------------------------------|
E|--------------------------------------|


3:05
e|------------------12----------------12-------------|
B|------------------12-------------------15----------|
G|-12~-------14^(16)------12-14^(16)--------14^(16)--|
D|---------------------14----------------------------|
A|---------------------------------------------------|
E|---------------------------------------------------|


3:12
e|--------15--------------12-------------------------------|
B|-15^(17)---17\15/17--12----15p12-------------------------|
G|--------------------------------14^(16)-14pb(16)r(14)-12-|
D|---------------------------------------------------------|
A|---------------------------------------------------------|
E|---------------------------------------------------------|

e|--------------------|
B|--------------------|
G|-14-12----12----12--|
D|-------14----14-12--|
A|--------------------|
E|--------------------|


3:19
e|--------15-15-15--------15-15------------------------12-|
B|-15^(17)---------15^(17)------17p15----17-15------------|
G|------------------------------------16-------14^(16)----|
D|--------------------------------------------------------|
A|--------------------------------------------------------|
E|--------------------------------------------------------|

e|-------------|
B|-------------|
G|-14p12---12--| FADE OUT
D|------14-----|
A|-------------|
E|-------------|



So there you have it.  There's some slide guitar earlier in the
song than 1:31, but it's very quiet, and either plays along with guitars
1 and 2 or plays basic bluesy slide licks.  


************************************

| /   slide up
| \   slide down
| h   hammer-on
| p   pull-off
| ~   vibrato
| +   harmonic
| x   Mute note
| b   Bend
| pb  Pre-bend
| br  Bend release
| pbr Pre-bend release
| brb Bend release bend

************************************
comments
We did not receive enough feedback on this tab! Please rate:
print report bad tab
1 2 3 4 5
I want to post or [tab]
guest
You may want to rate the tab now too:
select rating
Please do not post tabs as comments. Select "correction" instead!