Oops, an error
Loading. Please wait.

Bitch Bass Tab

version 1
version 1

Whole song

Interactive

6,166 views 1 this week
3 commentsread comments
1 2 3 4 5
x 8
add to favorites
launch autoscroll
font size
0
reset
guitar tuner
×
Best way to learn
"Bitch"
Autoscroll
slow
fast
+/-
esc
set tempo
stop
Bitch
                                Rolling Stones



                                                
||-------------------------------||--||------------------------------------||
||*----------------------5-7----*||--||*-------------5-7------------------*||
||*-5-5--7-7--5--7-7--5---------*||--||*-5-5--7-7--5------5-5--7--5--3--0-*||
||-------------------------------||--||------------------------------------||



Have fun !

        JES.
Suggest correction
comments
print report bad tab
3 comments total.
+1 reply
SpaceForThePapa 61 Jul 09, 2008 09:32 AM

It looks/sounds like it starts on the wrong string. My ear says:

Intro/Verse:
G|---------------------7-5-*-----------7-5---------------------------|
D|---5-7-7-5-7-7-5-7-5---------5-7-7-5-----5-7-5---------------------|
A|-7-------------------------7-------------------7-0-----------------|
E|-------------------------------------------------------------------|

Chorus:
G|-------------------------------------------------------------------|
D|-------------------------------------------------------------------|
A|-5-5---------5-5-----7-7-------------------------------------------|
E|-----3-3-5-5-----7-7-----------------------------------------------|

0 reply
mattiasb 382 Jul 21, 2008 06:42 AM

That sucked. SpaceForThePapa version sounds better.

0 reply
cmano13 733 Jul 03, 2014 01:21 AM

Lack of formatting. Lack of accuracy. Tab incomplete.

guest
You may want to rate the tab now too:
select rating
Wanna post a correction for this tab? Suggest correction