Oops, an error
Loading. Please wait.

Brown Sugar Tab

version 2
version 2

Whole song

Video

225,728 views 261 this week
23 commentsread comments
1 2 3 4 5
x 54
add to favorites
×
Save as Personal and add changes to this tab that will be seen only by you. Learn more ›
×
You can save this tab as Personal to edit and correct it or add notes. All changes will be seen only by you. Learn more »
save as personal
new!
launch autoscroll
font size
0
reset
how to read this tab
guitar tuner
backing track
0:00
0:00
Autoscroll
slow
fast
+/-
esc
set tempo
stop
Author
Difficulty
intermediate
BROWN SUGAR
As recorded by Rolling Stones
Transcribed By Paul Bell
Gtr I (E A D G B E) - Standard
Gtr II (D G D G B D) - Open G
Gtr III (E A D G B E) - Standard


   Q=120
  4/4
   Gtr I
   W                 H       E E E E   +W                  H       E E E E
e|-----------------|-----------------|-------------------|------------------|
B|-----------------|-----------------|-------------------|------------------|
G|-----------------|-----------------|-------------------|------------------|
D|-----------------|-------------3-5-|-(5)---------------|-------------3-5--|
A|-----------------|---------3-5-----|-------------------|---------3-5------|
E|-----------------|-----------------|-------------------|------------------|
|
 | Gtr II
 | Q   E E  E Q  E   E E E E Q   E E    Q    E E  E Q  E   E E E E E E E E
e|-----------------|-----------------|-------------------|------------------|
B|----13---12----5-|---5---6-6---5---|------13---12----5-|---5---6-6-5-5----|
G|----12---12----5-|---5---5-5---5---|------12---12----5-|---5---5-5-5-5----|
D|----14---12----5-|---5---7-7---5---|------14---12----5-|---5---7-7-5-5----|
A|-----------------|-----------------|-------------------|------------------|
E|-----------------|-----------------|-------------------|------------------|


                                                             Gtrs I, III
   +W                  H       E E E E   +W                  H       Q  E S S
e|-------------------|-----------------|-------------------|-------------------|
B|-------------------|-----------------|-------------------|--------------8-8--|
G|-------------------|-----------------|-------------------|--------------8-8--|
D|-(5)---------------|-------------3-5-|-(5)---------------|--------------8-8--|
A|-------------------|---------3-5-----|-------------------|-------------------|
E|-------------------|-----------------|-------------------|-------------------|
|
 |  Q    E E  E Q  E   E E E E E E E E    Q    E E  E Q  E   E E E E Q  E E
e|-------------------|-----------------|-------------------|-------------------|
B|------13---12----5-|---5---6-6-6-5---|------13---12----5-|---5---6-6--5------|
G|------12---12----5-|---5---5-5-5-5---|------12---12----5-|---5---5-5--5------|
D|------14---12----5-|---5---7-7-7-5---|------14---12----5-|---5---7-7--5------|
A|-------------------|-----------------|-------------------|-------------------|
E|-------------------|-----------------|-------------------|-------------------|


   Gtr III
   Q  Q  Q   Q      Q    Q  Q   Q      Q    Q   Q   Q      Q    Q   Q  E S S
e|---------------|------------------|--4----4---6---6---|---------------------|
B|-8--8--8---8---|--5----5--5---5---|--4----4---6---6---|--5----5---5--5-5-5--|
G|-8--8--8---8---|--5----5--5---5---|--5----5---7---7---|--5----5---5--5-5-5--|
D|-8--8--8---8---|--5----5--5---5---|--6----6---8---8---|--5----5---5--5-5-5--|
A|-6--6--6---6---|--7----7--7---7---|--6----6---8---8---|--7----7---7--7-7-7--|
E|---------------|--8----8--8---8---|--4----4---6---6---|--8----8---8--8-8-8--|
|
 | Gtr I
 | H     Q   E E   +E  E Q  Q   Q      Q    Q   Q   Q      Q    Q   Q  Q
e|---------------|------------------|-------------------|---------------------|
B|-8-----8-----5-|-(5)-5-5--5-------|--1----1---3---3---|--5----5---5--5------|
G|-8-----8-----5-|-(5)-5-5--5-------|--1----1---3---3---|--5----5---5--5------|
D|-8-----8-----5-|-(5)-5-5--5-------|--1----1---3---3---|--5----5---5--5------|
A|---------------|------------------|-------------------|---------------------|
E|---------------|------------------|-------------------|---------------------|
|
 | Gtr II
 | Q  Q  E Q   E   +E  E Q  E Q   E   +E  E E E E Q   E   +E  E E E Q  E E
e|---------------|------------------|-------------------|---------------------|
B|----6--6-4---5-|-(5)-6-6--6-5---1-|-(1)-2-1-2-4-3---6-|-(6)-6-6---5----4----|
G|----3--3-3---5-|-(5)---5--5-5---1-|-(1)-3-1-3-5-3---5-|-(5)-5-5---5----3----|
D|-------------5-|-(5)---5--5-5-----|-----------------5-|-(5)-5-5---5----5----|
A|---------------|------------------|-------------------|---------------------|
E|---------------|------------------|-------------------|---------------------|


    Q   Q   Q   Q      Q    Q  Q   Q      Q    Q   Q   Q      Q    Q  Q  Q
e|------------------|------------------|--4----4---6---6---|----------------|
B|--8---8---8---8---|--5----5--5---5---|--4----4---6---6---|--5----5--5--5--|
G|--8---8---8---8---|--5----5--5---5---|--5----5---7---7---|--5----5--5--5--|
D|--8---8---8---8---|--5----5--5---5---|--6----6---8---8---|--5----5--5--5--|
A|--6---6---6---6---|--7----7--7---7---|--6----6---8---8---|--7----7--7--7--|
E|------------------|--8----8--8---8---|--4----4---6---6---|--8----8--8--8--|
 |
 |  H       E E E E   +Q    Q  E Q   E    Q    Q   Q   Q      Q    Q  Q  Q
e|------------------|------------------|-------------------|----------------|
B|--8-------8-8-----|------------------|--1----1---3---3---|--5----5--5--5--|
G|--8-------8-8---5-|-(5)---5--5-5-----|--1----1---3---3---|--5----5--5--5--|
D|--8-------8-8---5-|-(5)---5--7-5-----|--1----1---3---3---|--5----5--5--5--|
A|------------------|------------------|-------------------|----------------|
E|------------------|------------------|-------------------|----------------|
 |
 | +Q   E E E Q   E   +E  E Q  E Q   E   +E  E E E E Q   E   +E  E Q  Q  Q
e|------------------|------------------|-------------------|----------------|
B|-(4)--6---6-4---5-|-(5)-6-6--6-5---1-|-(1)-2-1-2-4-3---6-|-(6)-6-6--5--5--|
G|-(3)------3-3---5-|-(5)---5--5-5---1-|-(1)-3-1-3-5-3---5-|-(5)-5-5--5--5--|
D|-(5)------5-5---5-|-(5)---5--5-5-----|-----------------5-|-(5)-5-5--5--5--|
A|------------------|------------------|-------------------|----------------|
E|------------------|------------------|-------------------|----------------|


   Q   Q   Q   Q     Q   Q   Q   Q
e|-0---0---0---0---|-0---0---0---0---|
B|-1---1---1---1---|-1---1---1---1---|
G|-0---0---0---0---|-0---0---0---0---|
D|-2---2---2---2---|-2---2---2---2---|
A|-3---3---3---3---|-3---3---3---3---|
E|-----------------|-----------------|
 |
 | E E E E Q   E E   E E E E Q   E E
e|-----------------|-----------------|
B|---5-----5-------|---5-----5-------|
G|---5-----5-------|---5-----5-------|
D|-----7-5-----7-5-|-----7-5-----7-5-|
A|-----------------|-----------------|
E|-----------------|-----------------|
 |
 | E E Q   E E Q     E E Q   E E Q
e|-----------------|-----------------|
B|---5-----5-------|---5-----5-------|
G|---5-----5-------|---5-----5-------|
D|---5-----5-------|---5-----5-------|
A|-----------------|-----------------|
E|-----------------|-----------------|


   Q     Q     Q    Q       Q     Q    Q   Q
e|-1-----1-----1----1----|--1-----1----1---1---|
B|-1-----1-----1----1----|--1-----1----1---1---|
G|-2-----2-----2----2----|--2-----2----2---2---|
D|-3-----3-----3----3----|--3-----3----3---3---|
A|-3-----3-----3----3----|--3-----3----3---3---|
E|-1-----1-----1----1----|--1-----1----1---1---|
 |
 | E  E  E  E  Q    E  E    E  E  E E  Q   Q
e|-----------------------|---------------------|
B|---10-------10---------|-10----11---10-------|
G|---10-------10---------|-10----10---10-------|
D|------12-10------12-10-|-10----10---10-------|
A|-----------------------|---------------------|
E|-----------------------|---------------------|
 |
 | E  E  E  E  E E  Q       E  E  E E  E Q   E
e|-----------------------|---------------------|
B|---10-11----10---------|----10-11---10-----5-|
G|---10-10----10---------|----10-10---10-----5-|
D|---10-12----10---------|----10-12---10-----5-|
A|-----------------------|---------------------|
E|-----------------------|---------------------|


    Q    Q   Q   Q     Q   Q   Q   Q      Q    Q   Q  Q     Q   Q  Q  E S S
e|--0----0---0---0---|-0---0---0---0---|------------------|-0---0--0--0-0-0--|
B|--1----1---1---1---|-1---1---1---1---|--3----3---3--3---|-1---1--1--1-1-1--|
G|--0----0---0---0---|-0---0---0---0---|--3----3---3--3---|-0---0--0--0-0-0--|
D|--2----2---2---2---|-2---2---2---2---|--3----3---3--3---|-2---2--2--2-2-2--|
A|--3----3---3---3---|-3---3---3---3---|--1----1---1--1---|-3---3--3--3-3-3--|
E|-------------------|-----------------|------------------|------------------|
 |
 |  E  E E E Q   E E   E E E E Q   E E    E  E E E Q  E E   E E Q  Q  Q
e|-------------------|-----------------|------------------|------------------|
B|-----5-----5-------|---5-----5-------|-----3-----3------|---5-5--5--5------|
G|-----5-----5-------|---5-----5-------|-----3-----3------|---5-5--5--5------|
D|-------7-5-----7-5-|-----7-5-----7-5-|-------5-3----5-3-|---5-5--5--5------|
A|-------------------|-----------------|------------------|------------------|
E|-------------------|-----------------|------------------|------------------|
 |
 | +Q    E Q   E Q     E Q   E E E E E   +Q    Q   Q  E E   E E Q  Q  Q
e|-------------------|-----------------|------------------|------------------|
B|-(5)---5-----5-----|-5-----5---5---6-|-(6)---6---6--5-5-|---6-5--5--5------|
G|-(5)---5-----5-----|-5-----5---5---7-|-(7)---7---7--5-5-|---5-5--5--5------|
D|-(5)---5-----5-----|-5-----5---5---8-|-(8)---8---8--5-5-|---7-5--5--5------|
A|-------------------|-----------------|------------------|------------------|
E|-------------------|-----------------|------------------|------------------|


   Q   Q  Q      Q         Q    Q   Q   Q
e|-3---3--3------3------|--3----3---3---3---|
B|-0---0--0------0------|--0----0---0---0---|
G|-0---0--0------0------|--0----0---0---0---|
D|-0---0--0------0------|--0----0---0---0---|
A|-2---2--2------2------|--2----2---2---2---|
E|-3---3--3------3------|--3----3---3---3---|
 |
 | H      T S. E T S. E   +Q    E E E E Q
e|----------------------|-------------------|
B|----------------------|-------------------|
G|----------------------|-----------5-------|
D|---------------7s9--5-|-(5)---8-5---8-5---|
A|-------------5--------|-------------------|
E|--------5s7-----------|-------------------|
 |
 | H.            E    E    E  Q   H       E
e|----------------------|-------------------|
B|----------------------|-----------------5-|
G|----------------------|--5--3-----------5-|
D|---------------3------|--5--3-----------5-|
A|--------------------5-|---------5---------|
E|-3--------------------|-------------------|


    Q    Q   Q   Q      Q    Q   Q   E S S
e|--0----0---0---0---|--0----0---0---0-0-0--|
B|--1----1---1---1---|--1----1---1---1-1-1--|
G|--0----0---0---0---|--0----0---0---0-0-0--|
D|--2----2---2---2---|--2----2---2---2-2-2--|
A|--3----3---3---3---|--3----3---3---3-3-3--|
E|-------------------|----------------------|
 |
 |  E  E E E E E E E   +E  E E E E E E S S
e|-------------------|----------------------|
B|-----5-----5-5---5-|-(5)-5-----5-5--------|
G|-----5-----5-5---5-|-(5)-5-----5-5--------|
D|-------7-5---------|-------7-5------------|
A|-------------------|----------------------|
E|-------------------|-----------------3-3--|
 |
 | +Q    E E E E E E   +Q    E E E E Q
e|-------------------|----------------------|
B|-(5)---6---5-6---5-|-(5)---6---5-6--------|
G|-(5)---5---5-5---5-|-(5)---5---5-5--------|
D|-(5)---7---5-7---5-|-(5)---7---5-7--------|
A|-------------------|----------------------|
E|-------------------|----------------------|


   Q   Q  Q      Q         Q    Q   Q   Q
e|-3---3--3------3------|--3----3---3---3---|
B|-0---0--0------0------|--0----0---0---0---|
G|-0---0--0------0------|--0----0---0---0---|
D|-0---0--0------0------|--0----0---0---0---|
A|-2---2--2------2------|--2----2---2---2---|
E|-3---3--3------3------|--3----3---3---3---|
 |
 | H      T S. E T S. E   +Q    E E E E Q
e|----------------------|-------------------|
B|----------------------|-------------------|
G|----------------------|-----------5-------|
D|---------------7s9--5-|-(5)---8-5---8-5---|
A|-------------5--------|-------------------|
E|-3------5s7-----------|-------------------|
 |
 | H.            E    E    E  Q   H       E
e|----------------------|-------------------|
B|----------------------|-----------------5-|
G|----------------------|--5--3-----------5-|
D|---------------3------|--5--3-----------5-|
A|--------------------5-|---------5---------|
E|-3--------------------|-------------------|


    Q    Q   Q   Q      Q    Q   Q   E S S
e|--0----0---0---0---|--0----0---0---0------|
B|--1----1---1---1---|--1----1---1---1-8-8--|
G|--0----0---0---0---|--0----0---0---0-8-8--|
D|--2----2---2---2---|--2----2---2---2-8-8--|
A|--3----3---3---3---|--3----3---3---3-6-6--|
E|-------------------|----------------------|
|
 |  E  E E E E E E E   +E  E E E E E Q
e|-------------------|----------------------|
B|-----5-----5-5---5-|-(5)-5-----5-5--------|
G|-----5-----5-5---5-|-(5)-5-----5-5--------|
D|-------7-5---------|-------7-5------------|
A|-------------------|----------------------|
E|-------------------|----------------------|
|
 | +Q    E E E E E E   +Q    E E E E E S S
e|-------------------|----------------------|
B|-(5)---6---5-6---5-|-(5)---6---5-6---8-8--|
G|-(5)---5---5-5---5-|-(5)---5---5-5---8-8--|
D|-(5)---7---5-7---5-|-(5)---7---5-7---8-8--|
A|-------------------|----------------------|
E|-------------------|----------------------|


   Q  Q   Q   Q      Q    Q  Q   Q      Q    Q   Q   Q      Q    Q  Q  Q
e|----------------|------------------|--4----4---6---6---|----------------|
B|-8--8---8---8---|--5----5--5---5---|--4----4---6---6---|--5----5--5--5--|
G|-8--8---8---8---|--5----5--5---5---|--5----5---7---7---|--5----5--5--5--|
D|-8--8---8---8---|--5----5--5---5---|--6----6---8---8---|--5----5--5--5--|
A|-6--6---6---6---|--7----7--7---7---|--6----6---8---8---|--7----7--7--7--|
E|----------------|--8----8--8---8---|--4----4---6---6---|--8----8--8--8--|
|
 | H      E E E E   +Q    Q  E Q   E    Q    Q   Q   Q      Q    Q  Q  Q
e|----------------|------------------|-------------------|----------------|
B|-8------8-8-----|------------------|--1----1---3---3---|--5----5--5--5--|
G|-8------8-8---5-|-(5)---5--5-5-----|--1----1---3---3---|--5----5--5--5--|
D|-8------8-8---5-|-(5)---5--7-5-----|--1----1---3---3---|--5----5--5--5--|
A|----------------|------------------|-------------------|----------------|
E|----------------|------------------|-------------------|----------------|
|
 | Q  E E E Q   E   +E  E Q  E Q   E   +E  E E E E Q   E   +E  E Q  Q  Q
e|----------------|------------------|-------------------|----------------|
B|-4--6---6-4---5-|-(5)-6-6--6-5---1-|-(1)-2-1-2-4-3---6-|-(6)-6-6--5--5--|
G|-3------3-4---5-|-(5)---5--5-5---1-|-(1)-3-1-3-5-3---5-|-(5)-5-5--5--5--|
D|-5------5-4---5-|-(5)---5--5-5-----|-----------------5-|-(5)-5-5--5--5--|
A|----------------|------------------|-------------------|----------------|
E|----------------|------------------|-------------------|----------------|


   Q   Q   Q   Q     Q   Q   Q   Q
e|-0---0---0---0---|-0---0---0---0---|
B|-1---1---1---1---|-1---1---1---1---|
G|-0---0---0---0---|-0---0---0---0---|
D|-2---2---2---2---|-2---2---2---2---|
A|-3---3---3---3---|-3---3---3---3---|
E|-----------------|-----------------|
|
 | E E E E Q   E E   E E E E Q   E E
e|-----------------|-----------------|
B|---5-----5-------|---5-----5-------|
G|---5-----5-------|---5-----5-------|
D|-----7-5-----7-5-|-----7-5-----7-5-|
A|-----------------|-----------------|
E|-----------------|-----------------|
|
 | E E Q   E E Q     E E Q   E E Q
e|-----------------|-----------------|
B|---5-----5-------|---5-----5-------|
G|---5-----5-------|---5-----5-------|
D|---5-----5-------|---5-----5-------|
A|-----------------|-----------------|
E|-----------------|-----------------|


   Q     Q     Q    Q       Q     Q    Q   Q
e|-1-----1-----1----1----|--1-----1----1---1---|
B|-1-----1-----1----1----|--1-----1----1---1---|
G|-2-----2-----2----2----|--2-----2----2---2---|
D|-3-----3-----3----3----|--3-----3----3---3---|
A|-3-----3-----3----3----|--3-----3----3---3---|
E|-1-----1-----1----1----|--1-----1----1---1---|
|
 | E  E  E  E  Q    E  E    E  E  E E  Q   Q
e|-----------------------|---------------------|
B|---10-------10---------|-10----11---10-------|
G|---10-------10---------|-10----10---10-------|
D|------12-10------12-10-|-10----10---10-------|
A|-----------------------|---------------------|
E|-----------------------|---------------------|
|
 | E  E  E  E  E E  Q       E  E  E E  E Q   E
e|-----------------------|---------------------|
B|---10-11----10---------|----10-11---10-----5-|
G|---10-10----10---------|----10-10---10-----5-|
D|---10-12----10---------|----10-12---10-----5-|
A|-----------------------|---------------------|
E|-----------------------|---------------------|


    Q    Q   Q   Q     Q   Q   Q   Q      Q    Q   Q  Q     Q   Q  Q  E S S
e|--0----0---0---0---|-0---0---0---0---|------------------|-0---0--0--0-0-0--|
B|--1----1---1---1---|-1---1---1---1---|--3----3---3--3---|-1---1--1--1-1-1--|
G|--0----0---0---0---|-0---0---0---0---|--3----3---3--3---|-0---0--0--0-0-0--|
D|--2----2---2---2---|-2---2---2---2---|--3----3---3--3---|-2---2--2--2-2-2--|
A|--3----3---3---3---|-3---3---3---3---|--1----1---1--1---|-3---3--3--3-3-3--|
E|-------------------|-----------------|------------------|------------------|
|
 |  E  E E E Q   E E   E E E E Q   E E    E  E E E Q  E E   E E Q  Q  Q
e|-------------------|-----------------|------------------|------------------|
B|-----5-----5-------|---5-----5-------|-----3-----3------|---5-5--5--5------|
G|-----5-----5-------|---5-----5-------|-----3-----3------|---5-5--5--5------|
D|-------7-5-----7-5-|-----7-5-----7-5-|-------5-3----5-3-|---5-5--5--5------|
A|-------------------|-----------------|------------------|------------------|
E|-------------------|-----------------|------------------|------------------|
|
 | +Q    E Q   E Q     E Q   E E E E E   +Q    Q   Q  E E   E E Q  Q  Q
e|-------------------|-----------------|------------------|------------------|
B|-(5)---5-----5-----|-5-----5---5---6-|-(6)---6---6--5-5-|---6-5--5--5------|
G|-(5)---5-----5-----|-5-----5---5---7-|-(7)---7---7--5-5-|---5-5--5--5------|
D|-(5)---5-----5-----|-5-----5---5---8-|-(8)---8---8--5-5-|---7-5--5--5------|
A|-------------------|-----------------|------------------|------------------|
E|-------------------|-----------------|------------------|------------------|


   Q   Q  Q      Q         Q    Q   Q   Q
e|-3---3--3------3------|--3----3---3---3---|
B|-0---0--0------0------|--0----0---0---0---|
G|-0---0--0------0------|--0----0---0---0---|
D|-0---0--0------0------|--0----0---0---0---|
A|-2---2--2------2------|--2----2---2---2---|
E|-3---3--3------3------|--3----3---3---3---|
|
 | H      T S. E T S. E   +Q    E E E E Q
e|----------------------|-------------------|
B|----------------------|-------------------|
G|----------------------|-----------5-------|
D|---------------7s9--5-|-(5)---8-5---8-5---|
A|-------------5--------|-------------------|
E|--------5s7-----------|-------------------|
|
 | H.            E    E    E  Q   H       E
e|----------------------|-------------------|
B|----------------------|-----------------5-|
G|----------------------|--5--3-----------5-|
D|---------------3------|--5--3-----------5-|
A|--------------------5-|---------5---------|
E|-3--------------------|-------------------|


    Q    Q   Q   Q      Q    Q   Q   E S S
e|--0----0---0---0---|--0----0---0---0-0-0--|
B|--1----1---1---1---|--1----1---1---1-1-1--|
G|--0----0---0---0---|--0----0---0---0-0-0--|
D|--2----2---2---2---|--2----2---2---2-2-2--|
A|--3----3---3---3---|--3----3---3---3-3-3--|
E|-------------------|----------------------|
|
 |  E  E E E E E E E   +E  E E E E E E S S
e|-------------------|----------------------|
B|-----5-----5-5---5-|-(5)-5-----5-5--------|
G|-----5-----5-5---5-|-(5)-5-----5-5--------|
D|-------7-5---------|-------7-5------------|
A|-------------------|----------------------|
E|-------------------|-----------------3-3--|
|
 | +Q    E E E E E E   +Q    E E E E Q
e|-------------------|----------------------|
B|-(5)---6---5-6---5-|-(5)---6---5-6--------|
G|-(5)---5---5-5---5-|-(5)---5---5-5--------|
D|-(5)---7---5-7---5-|-(5)---7---5-7--------|
A|-------------------|----------------------|
E|-------------------|----------------------|


   Q   Q  Q      Q         Q    Q   Q   Q
e|-3---3--3------3------|--3----3---3---3---|
B|-0---0--0------0------|--0----0---0---0---|
G|-0---0--0------0------|--0----0---0---0---|
D|-0---0--0------0------|--0----0---0---0---|
A|-2---2--2------2------|--2----2---2---2---|
E|-3---3--3------3------|--3----3---3---3---|
|
 | H      T S. E T S. E   +Q    E E E E Q
e|----------------------|-------------------|
B|----------------------|-------------------|
G|----------------------|-----------5-------|
D|---------------7s9--5-|-(5)---8-5---8-5---|
A|-------------5--------|-------------------|
E|-3------5s7-----------|-------------------|
|
 | H.            E    E    E  Q   H       E
e|----------------------|-------------------|
B|----------------------|-----------------5-|
G|----------------------|--5--3-----------5-|
D|---------------3------|--5--3-----------5-|
A|--------------------5-|---------5---------|
E|-3--------------------|-------------------|


    Q    Q   Q   Q      Q    Q   Q   E S S
e|--0----0---0---0---|--0----0---0---0------|
B|--1----1---1---1---|--1----1---1---1-8-8--|
G|--0----0---0---0---|--0----0---0---0-8-8--|
D|--2----2---2---2---|--2----2---2---2-8-8--|
A|--3----3---3---3---|--3----3---3---3-6-6--|
E|-------------------|----------------------|
|
 |  E  E E E E E E E   +E  E E E E E Q
e|-------------------|----------------------|
B|-----5-----5-5---5-|-(5)-5-----5-5--------|
G|-----5-----5-5---5-|-(5)-5-----5-5--------|
D|-------7-5---------|-------7-5------------|
A|-------------------|----------------------|
E|-------------------|----------------------|
|
 | +Q    E E E E E E   +Q    E E E E E S S
e|-------------------|----------------------|
B|-(5)---6---5-6---5-|-(5)---6---5-6---8-8--|
G|-(5)---5---5-5---5-|-(5)---5---5-5---8-8--|
D|-(5)---7---5-7---5-|-(5)---7---5-7---8-8--|
A|-------------------|----------------------|
E|-------------------|----------------------|


   Q   Q    Q   Q      Q    Q  Q   Q      Q    Q   Q   Q      Q    Q  Q  E S S
e|------------------|------------------|--4----4---6---6---|--------------------|
B|-8---8----8---8---|--5----5--5---5---|--4----4---6---6---|--5----5--5--5-5-5--|
G|-8---8----8---8---|--5----5--5---5---|--5----5---7---7---|--5----5--5--5-5-5--|
D|-8---8----8---8---|--5----5--5---5---|--6----6---8---8---|--5----5--5--5-5-5--|
A|-6---6----6---6---|--7----7--7---7---|--6----6---8---8---|--7----7--7--7-7-7--|
E|------------------|--8----8--8---8---|--4----4---6---6---|--8----8--8--8-8-8--|
|
 | H        Q   E E   +E  E Q  Q   Q      Q    Q   Q   Q      Q    Q  Q  Q
e|------------------|------------------|-------------------|--------------------|
B|-8--------8-----5-|-(5)-5-5--5-------|--1----1---3---3---|--5----5--5--5------|
G|-8--------8-----5-|-(5)-5-5--5-------|--1----1---3---3---|--5----5--5--5------|
D|-8--------8-----5-|-(5)-5-5--5-------|--1----1---3---3---|--5----5--5--5------|
A|------------------|------------------|-------------------|--------------------|
E|------------------|------------------|-------------------|--------------------|
|
 | Q   E E  E Q   E   +E  E Q  E Q   E   +E  E E E E Q   E   +E  E Q  Q  E S S
e|------------------|------------------|-------------------|--------------------|
B|-8---9----9-8---5-|-(5)-6-6--6-5---1-|-(1)-2-1-2-4-3---6-|-(6)-6-5--5----8-8--|
G|-8--10---10-8---5-|-(5)---5--5-5---1-|-(1)-3-1-3-5-3---5-|-(5)-5-5--5----8-8--|
D|-8--------------5-|-(5)---5--5-5-----|-----------------5-|-(5)-5-5--5----8-8--|
A|------------------|------------------|-------------------|--------------------|
E|------------------|------------------|-------------------|--------------------|


   Q   Q    Q   Q      Q    Q  Q   Q      Q    Q   Q   Q      Q    Q  Q  E S S
e|------------------|------------------|--4----4---6---6---|--------------------|
B|-8---8----8---8---|--5----5--5---5---|--4----4---6---6---|--5----5--5--5-5-5--|
G|-8---8----8---8---|--5----5--5---5---|--5----5---7---7---|--5----5--5--5-5-5--|
D|-8---8----8---8---|--5----5--5---5---|--6----6---8---8---|--5----5--5--5-5-5--|
A|-6---6----6---6---|--7----7--7---7---|--6----6---8---8---|--7----7--7--7-7-7--|
E|------------------|--8----8--8---8---|--4----4---6---6---|--8----8--8--8-8-8--|
|
 | H        E E E E   +Q    Q  E Q   E    Q    Q   Q   Q      Q    Q  Q  Q
e|------------------|------------------|-------------------|--------------------|
B|-8--------8-8-----|------------------|--1----1---3---3---|--5----5--5--5------|
G|-8--------8-8---5-|-(5)---5--5-5-----|--1----1---3---3---|--5----5--5--5------|
D|-8--------8-8---5-|-(5)---5--7-5-----|--1----1---3---3---|--5----5--5--5------|
A|------------------|------------------|-------------------|--------------------|
E|------------------|------------------|-------------------|--------------------|
|
 | Q   E E  E Q   E   +E  E Q  E Q   E   +E  E E E E Q   E   +E  E Q  Q  E S S
e|------------------|------------------|-------------------|--------------------|
B|-8---9----9-8---5-|-(5)-6-6--6-5---1-|-(1)-2-1-2-4-3---6-|-(6)-6-5--5----8-8--|
G|-8--10---10-8---5-|-(5)---5--5-5---1-|-(1)-3-1-3-5-3---5-|-(5)-5-5--5----8-8--|
D|-8--------------5-|-(5)---5--5-5-----|-----------------5-|-(5)-5-5--5----8-8--|
A|------------------|------------------|-------------------|--------------------|
E|------------------|------------------|-------------------|--------------------|


   Q   Q    Q   Q      Q    Q  Q   Q      Q    Q   Q   Q      Q    Q  Q  E S S
e|------------------|------------------|--4----4---6---6---|--------------------|
B|-8---8----8---8---|--5----5--5---5---|--4----4---6---6---|--5----5--5--5-5-5--|
G|-8---8----8---8---|--5----5--5---5---|--5----5---7---7---|--5----5--5--5-5-5--|
D|-8---8----8---8---|--5----5--5---5---|--6----6---8---8---|--5----5--5--5-5-5--|
A|-6---6----6---6---|--7----7--7---7---|--6----6---8---8---|--7----7--7--7-7-7--|
E|------------------|--8----8--8---8---|--4----4---6---6---|--8----8--8--8-8-8--|
|
 | H        Q   E E   +E  E Q  Q   Q      Q    Q   Q   Q      Q    Q  Q  Q
e|------------------|------------------|-------------------|--------------------|
B|-8--------8-----5-|-(5)-5-5--5-------|--1----1---3---3---|--5----5--5--5------|
G|-8--------8-----5-|-(5)-5-5--5-------|--1----1---3---3---|--5----5--5--5------|
D|-8--------8-----5-|-(5)-5-5--5-------|--1----1---3---3---|--5----5--5--5------|
A|------------------|------------------|-------------------|--------------------|
E|------------------|------------------|-------------------|--------------------|
|
 | Q   E E  E Q   E   +E  E Q  E Q   E   +E  E E E E Q   E   +E  E Q  Q  E S S
e|------------------|------------------|-------------------|--------------------|
B|-8---9----9-8---5-|-(5)-6-6--6-5---1-|-(1)-2-1-2-4-3---6-|-(6)-6-5--5----8-8--|
G|-8--10---10-8---5-|-(5)---5--5-5---1-|-(1)-3-1-3-5-3---5-|-(5)-5-5--5----8-8--|
D|-8--------------5-|-(5)---5--5-5-----|-----------------5-|-(5)-5-5--5----8-8--|
A|------------------|------------------|-------------------|--------------------|
E|------------------|------------------|-------------------|--------------------|


   Q   Q    Q   Q      Q    Q  Q   Q
e|------------------|------------------|
B|-8---8----8---8---|--5----5--5---5---|
G|-8---8----8---8---|--5----5--5---5---|
D|-8---8----8---8---|--5----5--5---5---|
A|-6---6----6---6---|--7----7--7---7---|
E|------------------|--8----8--8---8---|
|
 | H        E E E E   +Q    Q  E Q   E
e|------------------|------------------|
B|-8--------8-8-----|------------------|
G|-8--------8-8---5-|-(5)---5--5-5-----|
D|-8--------8-8---5-|-(5)---5--7-5-----|
A|------------------|------------------|
E|------------------|------------------|
|
 | Q   E E  E Q   E   +E  E Q  E Q   E
e|------------------|------------------|
B|-8---9----9-8---5-|-(5)-6-6--6-5---1-|
G|-8--10---10-8---5-|-(5)---5--5-5---1-|
D|-8--------------5-|-(5)---5--5-5-----|
A|------------------|------------------|
E|------------------|------------------|


    Q    Q   Q   Q      Q    Q   Q   E S S
e|--4----4---6---6---|--0----0---0---0-3-3--|
B|--4----4---6---6---|--1----1---1---1-0-0--|
G|--5----5---7---7---|--0----0---0---0-0-0--|
D|--6----6---8---8---|--2----2---2---2-0-0--|
A|--6----6---8---8---|--3----3---3---3-2-2--|
E|--4----4---6---6---|-----------------3-3--|
|
 |  Q    Q   Q   Q      Q    Q   Q   E S S
e|-------------------|----------------------|
B|--1----1---3---3---|--5----5---5---5------|
G|--1----1---3---3---|--5----5---5---5------|
D|--1----1---3---3---|--5----5---5---5------|
A|-------------------|----------------------|
E|-------------------|-----------------3-3--|
|
 | +E  E E E E Q   E   +E  E E E E E E E
e|-------------------|----------------------|
B|-(1)-2-1-2-4-3---5-|-(5)-6-5---5---5------|
G|-(1)-3-1-3-5-3---5-|-(5)-5-5---5---5------|
D|-----------------5-|-(5)-5-5---5---5------|
A|-------------------|----------------------|
E|-------------------|----------------------|


   Q   Q  Q      Q         Q    Q   Q   Q
e|-3---3--3------3------|--3----3---3---3---|
B|-0---0--0------0------|--0----0---0---0---|
G|-0---0--0------0------|--0----0---0---0---|
D|-0---0--0------0------|--0----0---0---0---|
A|-2---2--2------2------|--2----2---2---2---|
E|-3---3--3------3------|--3----3---3---3---|
|
 | H      T S. E T S. E   +Q    E E E E Q
e|----------------------|-------------------|
B|----------------------|-------------------|
G|----------------------|-----------5-------|
D|---------------7s9--5-|-(5)---8-5---8-5---|
A|-------------5--------|-------------------|
E|-3------5s7-----------|-------------------|
|
 | H.            E    E    E  Q   H       E
e|----------------------|-------------------|
B|----------------------|-----------------5-|
G|----------------------|--5--3-----------5-|
D|---------------3------|--5--3-----------5-|
A|--------------------5-|---------5---------|
E|-3--------------------|-------------------|


    Q    Q   Q   Q      Q    Q   Q   E S S
e|--0----0---0---0---|--0----0---0---0-0-0--|
B|--1----1---1---1---|--1----1---1---1-1-1--|
G|--0----0---0---0---|--0----0---0---0-0-0--|
D|--2----2---2---2---|--2----2---2---2-2-2--|
A|--3----3---3---3---|--3----3---3---3-3-3--|
E|-------------------|----------------------|
|
 |  E  E E E E E E E   +E  E E E E E E S S
e|-------------------|----------------------|
B|-----5-----5-5---5-|-(5)-5-----5-5--------|
G|-----5-----5-5---5-|-(5)-5-----5-5--------|
D|-------7-5---------|-------7-5------------|
A|-------------------|----------------------|
E|-------------------|-----------------3-3--|
|
 | +Q    E E E E E E   +Q    E E E E Q
e|-------------------|----------------------|
B|-(5)---6---5-6---5-|-(5)---6---5-6--------|
G|-(5)---5---5-5---5-|-(5)---5---5-5--------|
D|-(5)---7---5-7---5-|-(5)---7---5-7--------|
A|-------------------|----------------------|
E|-------------------|----------------------|


   Q   Q  Q      Q         Q    Q   Q   Q
e|-3---3--3------3------|--3----3---3---3---|
B|-0---0--0------0------|--0----0---0---0---|
G|-0---0--0------0------|--0----0---0---0---|
D|-0---0--0------0------|--0----0---0---0---|
A|-2---2--2------2------|--2----2---2---2---|
E|-3---3--3------3------|--3----3---3---3---|
|
 | H      T S. E T S. E   +Q    E E E E Q
e|----------------------|-------------------|
B|----------------------|-------------------|
G|----------------------|-----------5-------|
D|---------------7s9--5-|-(5)---8-5---8-5---|
A|-------------5--------|-------------------|
E|-3------5s7-----------|-------------------|
|
 | H.            E    E    E  Q   H       E
e|----------------------|-------------------|
B|----------------------|-----------------5-|
G|----------------------|--5--3-----------5-|
D|---------------3------|--5--3-----------5-|
A|--------------------5-|---------5---------|
E|-3--------------------|-------------------|


    Q    Q   Q   Q      Q    Q   Q   Q
e|--0----0---0---0---|--0----0---0---0---|
B|--1----1---1---1---|--1----1---1---1---|
G|--0----0---0---0---|--0----0---0---0---|
D|--2----2---2---2---|--2----2---2---2---|
A|--3----3---3---3---|--3----3---3---3---|
E|-------------------|-------------------|
|
 |  E  E E E E E E E   +E  E E E E E E E
e|-------------------|-------------------|
B|-----5-----5-5---5-|-(5)-5-----5-5---5-|
G|-----5-----5-5---5-|-(5)-5-----5-5---5-|
D|-------7-5---------|-------7-5---------|
A|-------------------|-------------------|
E|-------------------|-------------------|
|
 | +Q    E E E E E E   +Q    E E E E E E
e|-------------------|-------------------|
B|-(5)---6---5-6---5-|-(5)---6---5-6---5-|
G|-(5)---5---5-5---5-|-(5)---5---5-5---5-|
D|-(5)---7---5-7---5-|-(5)---7---5-7---5-|
A|-------------------|-------------------|
E|-------------------|-------------------|


   Q   Q   Q   Q     Q   Q   Q   Q
e|-0---0---0---0---|-0---0---0---0---|
B|-1---1---1---1---|-1---1---1---1---|
G|-0---0---0---0---|-0---0---0---0---|
D|-2---2---2---2---|-2---2---2---2---|
A|-3---3---3---3---|-3---3---3---3---|
E|-----------------|-----------------|
|
 | E E E E Q   E E   E E E E Q   E E
e|-----------------|-----------------|
B|---5-----5-------|---5-----5-------|
G|---5-----5-------|---5-----5-------|
D|-----7-5-----7-5-|-----7-5-----7-5-|
A|-----------------|-----------------|
E|-----------------|-----------------|
|
 | E E Q   E E Q     E E Q   E E Q
e|-----------------|-----------------|
B|---5-----5-------|---5-----5-------|
G|---5-----5-------|---5-----5-------|
D|---5-----5-------|---5-----5-------|
A|-----------------|-----------------|
E|-----------------|-----------------|


   Q     Q    Q    Q      Q     Q     Q    Q
e|-1-----1----1----1----|-1-----1-----1----1---|
B|-1-----1----1----1----|-1-----1-----1----1---|
G|-2-----2----2----2----|-2-----2-----2----2---|
D|-3-----3----3----3----|-3-----3-----3----3---|
A|-3-----3----3----3----|-3-----3-----3----3---|
E|-1-----1----1----1----|-1-----1-----1----1---|
|
 | Q     Q    E  E E  E   E  E  E  E  Q    Q
e|----------------------|----------------------|
B|------10------10---10-|---10----10--3---10---|
G|------10------10---10-|---10----10--3---10---|
D|------10------10---10-|---10----10--3---10---|
A|----------------------|----------------------|
E|----------------------|----------------------|
|
 | E  E  E E  E  E Q      E  E  E  E  E Q    E
e|----------------------|----------------------|
B|---10-11---10---------|---10-11----10------5-|
G|---10-10---10---------|---10-10----10------5-|
D|---10-12---10---------|---10-12----10------5-|
A|----------------------|----------------------|
E|----------------------|----------------------|


    Q    Q   Q   Q     Q   Q    Q   Q      Q    Q  Q   Q      Q    Q  Q  E S S
e|--0----0---0---0---|-0---0----0---0---|------------------|--0----0--0--0-3-3--|
B|--1----1---1---1---|-1---1----1---1---|--3----3--3---3---|--1----1--1--1-0-0--|
G|--0----0---0---0---|-0---0----0---0---|--3----3--3---3---|--0----0--0--0-0-0--|
D|--2----2---2---2---|-2---2----2---2---|--3----3--3---3---|--2----2--2--2-0-0--|
A|--3----3---3---3---|-3---3----3---3---|--1----1--1---1---|--3----3--3--3-2-2--|
E|-------------------|------------------|------------------|---------------3-3--|
|
 |  E  E Q   Q   E E   E E E E  Q   Q      E  E Q  Q.    E   +E  E Q  Q  Q
e|-------------------|------------------|------------------|--------------------|
B|-----5-6---5-----5-|---5---5-10---5---|-----3-3--3-----5-|-(5)-3-5--5--5------|
G|-----5-5---5-----5-|---5---5-10---5---|-----3-3--3-----5-|-(5)-3-5--5--5------|
D|-----5-7---5-----5-|---5---5-10---5---|-----3-3--3-----5-|-(5)-3-5--5--5------|
A|-------------------|------------------|------------------|--------------------|
E|-------------------|------------------|------------------|--------------------|
|
 | +Q    E Q   E Q     E Q   E  E E E E   +Q    Q  Q   E E    E  E Q  Q  E S S
e|-------------------|------------------|------------------|--------------------|
B|-(5)---5-----5-----|-5-----5----5---6-|-(6)---6--6---5-5-|--5--3-5--5--5------|
G|-(5)---5-----5-----|-5-----5----5---7-|-(7)---7--7---5-5-|--5--3-5--5--5------|
D|-(5)---5-----5-----|-5-----5----5---8-|-(8)---8--8---5-5-|--5--3-5--5--5------|
A|-------------------|------------------|------------------|--------------------|
E|-------------------|------------------|------------------|---------------3-3--|


   Q   Q  Q      Q         Q    Q   Q   Q
e|-3---3--3------3------|--3----3---3---3---|
B|-0---0--0------0------|--0----0---0---0---|
G|-0---0--0------0------|--0----0---0---0---|
D|-0---0--0------0------|--0----0---0---0---|
A|-2---2--2------2------|--2----2---2---2---|
E|-3---3--3------3------|--3----3---3---3---|
|
 | H      T S. E T S. E   +Q    E E E E Q
e|----------------------|-------------------|
B|----------------------|-------------------|
G|----------------------|-----------5-------|
D|---------------7s9--5-|-(5)---8-5---8-5---|
A|-------------5--------|-------------------|
E|--------5s7-----------|-------------------|
|
 | H.            E    E    E  Q   H       E
e|----------------------|-------------------|
B|----------------------|-----------------5-|
G|----------------------|--5--3-----------5-|
D|---------------3------|--5--3-----------5-|
A|--------------------5-|---------5---------|
E|-3--------------------|-------------------|


    Q    Q   Q   Q      Q    Q   Q   E S S
e|--0----0---0---0---|--0----0---0---0-3-3--|
B|--1----1---1---1---|--1----1---1---1-0-0--|
G|--0----0---0---0---|--0----0---0---0-0-0--|
D|--2----2---2---2---|--2----2---2---2-0-0--|
A|--3----3---3---3---|--3----3---3---3-2-2--|
E|-------------------|-----------------3-3--|
|
 |  E  E E E E E E E   +E  E E E E E E S S
e|-------------------|----------------------|
B|-----5-----5-5---5-|-(5)-5-----5-5--------|
G|-----5-----5-5---5-|-(5)-5-----5-5--------|
D|-------7-5---------|-------7-5------------|
A|-------------------|----------------------|
E|-------------------|-----------------3-3--|
|
 | +Q    E E E E E E   +Q    E E E E Q
e|-------------------|----------------------|
B|-(5)---6---5-6---5-|-(5)---6---5-6--------|
G|-(5)---5---5-5---5-|-(5)---5---5-5--------|
D|-(5)---7---5-7---5-|-(5)---7---5-7--------|
A|-------------------|----------------------|
E|-------------------|----------------------|


   Q   Q  Q      Q         Q    Q   Q   Q
e|-3---3--3------3------|--3----3---3---3---|
B|-0---0--0------0------|--0----0---0---0---|
G|-0---0--0------0------|--0----0---0---0---|
D|-0---0--0------0------|--0----0---0---0---|
A|-2---2--2------2------|--2----2---2---2---|
E|-3---3--3------3------|--3----3---3---3---|
|
 | H      T S. E T S. E   +Q    E E E E Q
e|----------------------|-------------------|
B|----------------------|-------------------|
G|----------------------|-----------5-------|
D|---------------7s9--5-|-(5)---8-5---8-5---|
A|-------------5--------|-------------------|
E|-3------5s7-----------|-------------------|
|
 | H.            E    E    E  Q   H       E
e|----------------------|-------------------|
B|----------------------|-----------------5-|
G|----------------------|--5--3-----------5-|
D|---------------3------|--5--3-----------5-|
A|--------------------5-|---------5---------|
E|-3--------------------|-------------------|


    Q    Q   Q   Q      Q    Q   Q   E S S
e|--0----0---0---0---|--0----0---0---0-3-3--|
B|--1----1---1---1---|--1----1---1---1-0-0--|
G|--0----0---0---0---|--0----0---0---0-0-0--|
D|--2----2---2---2---|--2----2---2---2-0-0--|
A|--3----3---3---3---|--3----3---3---3-2-2--|
E|-------------------|-----------------3-3--|
|
 |  E  E E E E E E E   +E  E E E E E E S S
e|-------------------|----------------------|
B|-----5-----5-5---5-|-(5)-5-----5-5--------|
G|-----5-----5-5---5-|-(5)-5-----5-5--------|
D|-------7-5---------|-------7-5------------|
A|-------------------|----------------------|
E|-------------------|-----------------3-3--|
|
 | +Q    E E E E E E   +Q    E E E E Q
e|-------------------|----------------------|
B|-(5)---6---5-6---5-|-(5)---6---5-6--------|
G|-(5)---5---5-5---5-|-(5)---5---5-5--------|
D|-(5)---7---5-7---5-|-(5)---7---5-7--------|
A|-------------------|----------------------|
E|-------------------|----------------------|


   Q   Q  Q        Q         Q     Q     Q   Q
e|-3---3--3--------3------|--3-----3-----3---3--|
B|-0---0--0--------0------|--0-----0-----0---0--|
G|-0---0--0--------0------|--0-----0-----0---0--|
D|-0---0--0--------0------|--0-----0-----0---0--|
A|-2---2--2--------2------|--2-----2-----2---2--|
E|-3---3--3--------3------|--3-----3-----3---3--|
|
 | H      T S.  E  T S. E   +Q     E  E  E E Q
e|------------------------|---------------------|
B|------------------------|---------------------|
G|------------------------|--------------5------|
D|-----------------7s9--5-|-(5)----8--5----8-5--|
A|--------------5---------|---------------------|
E|-3------5s7-------------|---------------------|
|
 | Q   Q  E     E  Q         E   E E  Q.     Q
e|------------------------|---------------------|
B|----12-------12-13------|-12--13---12---------|
G|----12-------12-12------|-12--12---12---------|
D|----12-------12-14------|-12--14---12---------|
A|------------------------|---------------------|
E|------------------------|---------------------|


   Q   Q   Q   Q      Q    Q   Q   E  S S
e|-0---0---0---0---|--0----0---0---0--3-3--|
B|-1---1---1---1---|--1----1---1---1--0-0--|
G|-0---0---0---0---|--0----0---0---0--0-0--|
D|-2---2---2---2---|--2----2---2---2--0-0--|
A|-3---3---3---3---|--3----3---3---3--2-2--|
E|-----------------|------------------3-3--|
|
 | E E E E E E E E   +E  E E E E E Q
e|-----------------|-----------------------|
B|---5-----5-5---5-|-(5)-5-----5-5---------|
G|---5-----5-5---5-|-(5)-5-----5-5---------|
D|-----7-5---------|-------7-5-------------|
A|-----------------|-----------------------|
E|-----------------|-----------------------|
|
 | Q   Q   E E E E   +E  E Q   E E E  E
e|-----------------|-----------------------|
B|-5---6---5-6---5-|-(5)-5-6---5-6---12----|
G|-5---5---5-5---5-|-(5)-5-5---5-5---12----|
D|-5---7---5-7---5-|-(5)-5-7---5-7---12----|
A|-----------------|-----------------------|
E|-----------------|-----------------------|


       Q     Q    Q    Q        Q      Q    Q    Q
e||----3-----3----3----3----|---3------3----3----3---|
B||o---0-----0----0----0----|---0------0----0----0---|
G||----0-----0----0----0----|---0------0----0----0---|
D||----0-----0----0----0----|---0------0----0----0---|
A||o---2-----2----2----2----|---2------2----2----2---|
E||----3-----3----3----3----|---3------3----3----3---|
|
 |     E  E  E E  E  E E  E     E   E  E E  Q    E E
e||-------------------------|------------------------|
B||o------3--5----3----5----|---3------5----3----5---|
G||-------4--5----4----5----|---4------5----4----5---|
D||-------5--5----5----5----|---5------5----5----5---|
A||o------------------------|------------------------|
E||-------------------------|------------------------|
|
 |    +Q     Q    E  E E  E    +E   E  E E  E  E E E
e||-------------------------|------------------------|
B||o-(12)---13---12-13---12-|-(12)-12-13---12-13---5-|
G||--(12)---12---12-12---12-|-(12)-12-12---12-12---5-|
D||--(12)---14---12-14---12-|-(12)-12-14---12-14---5-|
A||o------------------------|------------------------|
E||-------------------------|------------------------|


    Q    Q   Q   Q      Q    Q   Q   E  S S
e|--0----0---0---0---|--0----0---0---0--3-3--||
B|--1----1---1---1---|--1----1---1---1--0-0-o||
G|--0----0---0---0---|--0----0---0---0--0-0--||
D|--2----2---2---2---|--2----2---2---2--0-0--||
A|--3----3---3---3---|--3----3---3---3--2-2-o||
E|-------------------|------------------3-3--||
|
 |  E  E E E E E E E    E  E E E E E E  E
e|-------------------|-----------------------||
B|-----5-6---5---6---|-----5-6---5---6------o||
G|-----5-5---5---5---|-----5-5---5---5-------||
D|-----5-7---5---7---|-----5-7---5---7-------||
A|-------------------|----------------------o||
E|-------------------|-----------------------||
|
 | +Q    Q   E E E E   +E  E E E E E E  E
e|-------------------|-----------------------||
B|-(5)---6---5-6---5-|-(5)-5-6---5-6---12---o||
G|-(5)---5---5-5---5-|-(5)-5-5---5-5---12----||
D|-(5)---7---5-7---5-|-(5)-5-7---5-7---12----||
A|-------------------|----------------------o||
E|-------------------|-----------------------||


       Q      Q   Q    Q        Q       Q    Q    Q
e||----3------3---3----3----|---3-------3----3----3---|
B||o---0------0---0----0----|---0-------0----0----0---|
G||----0------0---0----0----|---0-------0----0----0---|
D||----0------0---0----0----|---0-------0----0----0---|
A||o---2------2---2----2----|---2-------2----2----2---|
E||----3------3---3----3----|---3-------3----3----3---|
|
 |     E  Q.      E  E E  E     E   Q.       E  E E E
e||-------3-------3---------|-------3--------3--------|
B||o------3-------3--5-3----|-------3--------3--5-3---|
G||------------------5-3----|-------------------5-3---|
D||-----------------------5-|-----------------------5-|
A||o------------------------|-------------------------|
E||-------------------------|-------------------------|
|
 |    +Q      Q   E  E E  E    +E   E   E E  E  E E E
e||-------------------------|-------------------------|
B||o-(12)----13--12-13---12-|-(12)-12--13---12-13---5-|
G||--(12)----12--12-12---12-|-(12)-12--12---12-12---5-|
D||--(12)----14--12-14---12-|-(12)-12--14---12-14---5-|
A||o------------------------|-------------------------|
E||-------------------------|-------------------------|


    Q     Q  Q    Q       Q     Q   Q    E  S S  3x
e|--0-----0--0----0----|--0-----0---0----0--3-3--||
B|--1-----1--1----1----|--1-----1---1----1--0-0-o||
G|--0-----0--0----0----|--0-----0---0----0--0-0--||
D|--2-----2--2----2----|--2-----2---2----2--0-0--||
A|--3-----3--3----3----|--3-----3---3----3--2-2-o||
E|---------------------|--------------------3-3--||
|
 |  E  Q.    E  E E  E    E  Q.     E  E E  E    3x
e|-----8-----8---------|-----8------8------------||
B|-----8-----8-10-8----|-----8------8-10-8------o||
G|-------------10-8----|--------------10-8-------||
D|------------------10-|-------------------10----||
A|---------------------|------------------------o||
E|---------------------|-------------------------||
|
 | +Q     Q  E  E E  E   +E  E  E E E  E E  E    3x
e|---------------------|-------------------------||
B|-(5)----6--5--6----5-|-(5)-5--6---5--6---12---o||
G|-(5)----5--5--5----5-|-(5)-5--5---5--5---12----||
D|-(5)----7--5--7----5-|-(5)-5--7---5--7---12----||
A|---------------------|------------------------o||
E|---------------------|-------------------------||


     Q      Q   Q    Q        Q       Q    Q    Q
e|---3------3---3----3----|---3-------3----3----3---|
B|---0------0---0----0----|---0-------0----0----0---|
G|---0------0---0----0----|---0-------0----0----0---|
D|---0------0---0----0----|---0-------0----0----0---|
A|---2------2---2----2----|---2-------2----2----2---|
E|---3------3---3----3----|---3-------3----3----3---|
|
 |   E  Q.      E  E E  E     E   Q.       E  E E E
e|------3-------3---------|-------3--------3--------|
B|------3-------3--5-3----|-------3--------3--5-3---|
G|-----------------5-3----|-------------------5-3---|
D|----------------------5-|-----------------------5-|
A|------------------------|-------------------------|
E|------------------------|-------------------------|
|
 |  +Q      Q   E  E E  E    +E   E   E E  E  E E E
e|------------------------|-------------------------|
B|-(12)----13--12-13---12-|-(12)-12--13---12-13---5-|
G|-(12)----12--12-12---12-|-(12)-12--12---12-12---5-|
D|-(12)----14--12-14---12-|-(12)-12--14---12-14---5-|
A|------------------------|-------------------------|
E|------------------------|-------------------------|


    Q     Q  Q    Q       E     E     E          E      +H
e|--0-----0--0----0----|--0-----0-----0----------0------(0)-----*|
B|--1-----1--1----1----|--1-----1-----1----------1------(1)-----*|
G|--0-----0--0----0----|--0-----0-----0----------0------(0)-----*|
D|--2-----2--2----2----|--2-----2-----2----------2------(2)-----*|
A|--3-----3--3----3----|--3-----3-----3----------3------(3)-----*|
E|---------------------|----------------------------------------*|
|
 |  E  Q.    E  E E  E    E     E     S     +S   E      +H
e|-----8-----8---------|----------------------------------------*|
B|-----8-----8-10-8----|-11----11---------------11-----(11)-----*|
G|-------------10-8----|-10b12-10b12-10b12r(10)-10b12==(10)r----*|
D|------------------10-|----------------------------------------*|
A|---------------------|----------------------------------------*|
E|---------------------|----------------------------------------*|
|
 | +Q     Q  E  E E  E    E     E     E          E      +H
e|---------------------|----------------------------------------*|
B|-(5)----6--5--6----5-|--5-----6-----6----------5------(5)-----*|
G|-(5)----5--5--5----5-|--5-----5-----5----------5------(5)-----*|
D|-(5)----7--5--7----5-|--5-----7-----7----------5------(5)-----*|
A|---------------------|----------------------------------------*|
E|---------------------|----------------------------------------*|




--------------------------------------------------------------------------------


Duration Legend
---------------
W - whole; H - half; Q - quarter; E - 8th; S - 16th; T - 32nd; X - 64th; a - acciaccatura
+ - note tied to previous; . - note dotted; .. - note double dotted
Uncapitalized letters represent notes that are staccato (1/2 duration)
Irregular groupings are notated above the duration line
Duration letters will always appear directly above the note/fret number it represents the
duration for.  Duration letters with no fret number below them represent rests.  Multi-
bar rests are notated in the form Wxn, where n is the number of bars to rest for.  Low
melody durations appear below the staff




************************************

 h   - hammer-on
 p   - pull-off
 b   - bend
 pb  - pre-bend
 r   - bend release (if no number after the r, then release immediately)
 /\  - slide into or out of (from/to "nowhere")
 s   - legato slide
 S   - shift slide
 - natural harmonic
[n]  - artificial harmonic
n(n) - tapped harmonic
 ~   - vibrato
 tr  - trill
 T   - tap
 TP  - trem. picking
 PM  - palm muting
\n/  - tremolo bar dip; n = amount to dip
 \n  - tremolo bar down
 n/  - tremolo bar up
/n\  - tremolo bar inverted dip
 =   - hold bend; also acts as connecting device for hammers/pulls
 <> - volume swell (louder/softer)
 x   - on rhythm slash represents muted slash
 o   - on rhythm slash represents single note slash

Misc Legend
-----------
 |  - bar
||  - double bar
||o - repeat start
o|| - repeat end
*|  - double bar (ending)
 :  - bar (freetime)
 $  - Segno
 &  - Coda
Tempo markers -  = BPM(8/16=s8/s16), where s8 = swing 8ths, s16 = swing 16ths

************************************
Suggest correction
comments
print report bad tab
23 comments total. Showing first comments.
0 reply
JohnnyMak 10 Feb 05, 2005 07:00 PM

freakin awesome

0 reply
Repitition 10 May 06, 2006 10:37 PM

This is right and wrong at the same time. The second guitar is in Open G
(GG(same)DGBD) thats all that is wrong with it.

0 reply
Derigiberble 621 Jun 23, 2006 03:05 AM

Yes I agree that it is generally played in open G, but if you look at what he plays in my tab, you don't actually need to retune as it can all be played in standard.

guest
You may want to rate the tab now too:
select rating
Wanna post a correction for this tab? Suggest correction