Oops, an error
Loading. Please wait.

Brown Sugar bass

version 3
version 3
24,045 views 36 this week
3 commentsread comments
1 2 3 4 5
x 19
add to favorites
×
Save as Personal and add changes to this tab that will be seen only by you. Learn more ›
×
You can save this tab as Personal to edit and correct it or add notes. All changes will be seen only by you. Learn more »
launch autoscroll
font size
0
reset
guitar tuner
backing track
0:00
0:00
edit
Autoscroll
slow
fast
+/-
esc
set tempo
stop
Author
Difficulty
Unregistered
It was tough to hear exactly what Bill Wyman is doing since the original recording 
is not the best, so I took a few liberties and transcribed the best I could 
adding a few of my own fills.

Tabbed by: BASSteve
Tuning: EADG
Time signature: 4/4

r = rest (listen for duration)
||= measure gets repeated (see number of times above measure, e.g. 4x)

*My tabs are meant to be read in conjunction with listening to the song.
In other words, there are no specific notations to account for note/rest duration. 
However, you will find that I've made an attempt to strategically space the notes 
and rests within their respective measures in order to represent the appropriate 
durations.


[Intro]
G|--------|------------------------|--------------------------------|
D|--------|r-----------------------|r-------------------------------|
A|--------|------------------------|--------------------------------|
E|--------|------------------------|--------------------------------|

G|--------------------------------|--------------------------------||
D|5---5---5---5---5---5---5---5---|--------------------------------||
A|--------------------------------|3---3---3---3---3---3---3---5---|| x3
E|--------------------------------|--------------------------------||

G|--------------------------------|--------------------------------|
D|--------------------------------|------------3-------3-----------|
A|6-------6---8---6---8---6---r---|3-------3-------3-------3---r---| x2
E|--------------------------------|--------------------------------|

G|--------------------------------|----------------------------------||
D|--------------------------------|----------------------------------||
A|--------------------6-----------|---------------------8---9---10---||
E|4-------6---4---r-------6---r---|8-------8---8---10----------------||

 [Verse]
G|--------------------------------|--------------------------------|
D|--------------------------------|--------------------------------|
A|3---3---3---0---3---3---3---0---|3---3---3---0---3---3---3---0---|
E|--------------------------------|--------------------------------|

G|--------------------------------|--------------------------------|
D|3---3---3---0---3---3---3---0---|3---3---3---0---3---0---3---0---|
A|--------------------------------|--------------------------------|
E|--------------------------------|--------------------------------|

G|--------------------------------|--------------------------------|
D|--------------------------------|--------------------------------|
A|3---3---3---0---3---3---3---0---|3---3---3---0---3---3---3---0---|
E|--------------------------------|--------------------------------|

G|--------------------------------|--------------------------------|
D|--------------------------------|--------------------------------|
A|1---1---1---1---1-------1-------|3---3---3---3---3---3---3---3---|
E|--------------------3-----------|--------------------------------|

 [Chorus] x2
G||--------------------------------|--------------------------------|
D||----------------------------5---|----0---5-------5---3-----------|
A||--------------------2---5-------|------------------------5-------|
E||3-------3-------3---------------|--------------------------------|

G|--------------------------------|--------------------------------||
D|--------------------------------|--------------------------------||
A|3---3-----------3---3-----------|3---3-----------3---3-----------||
E|--------5---3-----------3---5---|--------5---3-----------3---5---||

 [Bridge]
G|--------------------------------|--------------------------------|
D|--------------------------------|------------3-------3---4---5---|
A|6-------6---8---6---8---6---r---|3-------3-------3---------------|
E|--------------------------------|--------------------------------|

G|--------------------------------|------------------------------------------|
D|6-----------6---8-----------8---|10-------10---10---10---10---8------------|
A|--------6---------------8-------|---------------------------------10-------|
E|--------------------------------|------------------------------------------|

 [Chorus] x2
G||--------------------------------|--------------------------------|
D||----------------------------5---|----0---5-------5---3-----------|
A||--------------------2---5-------|------------------------5-------|
E||3-------3-------3---------------|--------------------------------|

G|--------------------------------|--------------------------------||
D|--------------------------------|--------------------------------||
A|3---3-----------3---3-----------|3---3-----------3---3-----------||
E|--------5---3-----------3---5---|--------5---3-----------3---5---||

 [Solo]
G|--------------------------------|--------------------------------|
D|--------------------------------|------------3-------3---4---5---|
A|6-------6---8---6---8---6---r---|3-------3-------3---------------|
E|--------------------------------|--------------------------------|

G|--------------------------------|------------------------------------------|
D|6-----------6---8-----------8---|10-------10---10---10---10---8------------|
A|--------6---------------8-------|---------------------------------10-------|
E|--------------------------------|------------------------------------------|

G|--------------------------------|--------------------------------|
D|--------------------------------|------------3-------3-----------|
A|6-------6---8---6---8---6---r---|3-------3-------3-------3---r---|
E|--------------------------------|--------------------------------|
            
G|--------------------------------|----------------------------------|
D|--------------------------------|----------------------------------|
A|--------------------6-----------|---------------------8---9---10---|
E|4-------6---4---r-------6---r---|8-------8---8---10----------------|

G|--------------------------------|--------------------------------|
D|--------------------------------|------------3-------3---4---5---|
A|6-------6---8---6---8---6---r---|3-------3-------3---------------|
E|--------------------------------|--------------------------------|

G|--------------------------------|-------------------------------------------|
D|6-----------6---8-----------8---|10-------10---10---10---10---11---12-------|
A|--------6---------------8-------|-------------------------------------------|
E|--------------------------------|-------------------------------------------|

G|--------------------------------|--------------------------------|
D|--------------------------------|------------3-------3---4---5---|
A|6-------6---8---6---8---6---r---|3-------3-------3---------------|
E|--------------------------------|--------------------------------|

G|--------------------------------|--------------------------------|
D|6-----------6-------------------|------------------------3---5---|
A|--------6-----------------------|3---r---3---3---3---5-----------|
E|----------------6-------4---3---|--------------------------------|

 [Chorus]
G||--------------------------------|--------------------------------|
D||----------------------------5---|----0---5-------5---3-----------|
A||--------------------2---5-------|------------------------5-------|
E||3-------3-------3---------------|--------------------------------|

G|--------------------------------|--------------------------------||
D|--------------------------------|--------------------------------||
A|3---3-----------3---3-----------|3---3-----------3---3-----------||
E|--------5---3-----------3---5---|--------5---3-----------3---5---||

 [Verse]
G|--------------------------------|--------------------------------|
D|--------------------------------|--------------------------------|
A|3---3---3---0---3---3---3---0---|3---3---3---0---3---3---3---0---|
E|--------------------------------|--------------------------------|

G|--------------------------------|--------------------------------|
D|3---3---3---0---3---3---3---0---|3---3---3---0---3---0---3---0---|
A|--------------------------------|--------------------------------|
E|--------------------------------|--------------------------------|

G|--------------------------------|--------------------------------|
D|--------------------------------|--------------------------------|
A|3---3---3---0---3---3---3---0---|3---3---3---0---3---3---3---0---|
E|--------------------------------|--------------------------------|

G|--------------------------------|--------------------------------|
D|--------------------------------|--------------------------------|
A|1---1---1---1---1-------1-------|3---3---3---3---3---3---3---3---|
E|--------------------3-----------|--------------------------------|

 [Chorus] x8
G||--------------------------------|--------------------------------|
D||----------------------------5---|----0---5-------5---3-----------|
A||--------------------2---5-------|------------------------5-------|
E||3-------3-------3---------------|--------------------------------|

G|--------------------------------|--------------------------------||
D|--------------------------------|--------------------------------||
A|3---3-----------3---3-----------|3---3-----------3---3-----------||
E|--------5---3-----------3---5---|--------5---3-----------3---5---||

 [Outro]
G|--------------------------------|--------------------------------|
D|----------------------------5---|----0---5-------5---3-----------|
A|--------------------2---5-------|------------------------5-------|
E|3-------3-------3---------------|--------------------------------|

G|--------------------------------|--------------------------------|
D|--------------------------------|--------------------------------|
A|3---3-----------3---3-----------|3-----------3-------------------|
E|--------5---3-----------3---5---|----5---3-----------------------|

              (PLEASE RATE THIS TAB / LEAVE COMMENT)

            
            
Suggest correction
Creating personal tab
Creating personal tab
You can edit any tab online and save it as your Personal.

You can edit, replace or remove any tab part or add personal notes – all changes will be seen only by you.

Personal tabs can be accessed anytime from any device, even offline.
Learn more »
comments
print report bad tab
3 comments total.
+1 reply
Vinyl Countdown 107 Feb 26, 2011 03:38 AM

Cheers to the creator of this tab, I've got a gig coming up and needed to learn this song fast - your clear structuring and accurate notes saved me a ton of time man! :D

+1 reply
salazar494 10 Dec 03, 2013 09:04 PM

Great Tab, thanks.

+1 reply
kelviningram 10 Jun 27, 2017 05:27 PM

Brilliant effort. 100% accurate and very well set out.

guest
Wanna post a correction for this tab? Suggest correction