Oops, an error
Loading. Please wait.

Casino Boogie Chords

11,499 views 33 this week
1 commentread comment
1 2 3 4 5
worth learning
x 6
add to favorites
launch autoscroll
font size
0
reset
transpose
0
reset
display chords
guitar tuner
Tab Pro tools
  • play this tab
  • loop segment
  • change instrument
  • show fretboard
  • metronome
×
Best way to learn
"Casino Boogie"
Autoscroll
slow
fast
+/-
esc
set tempo
stop
Contributor
ROLLING STONES - CASINO BOOGIE
(Jagger/Richards)

Tabber: Mord_Wraith
E-mail: thundastruck@hotmail.com
Date: 9/28/2004

Tuning (low to high): EADGBE

Intro:

E|---5-5---3-3-------------5-5---|
B|---2-2---2-2-------------2-2---|
G|---------------7b9-9r7p6-------| play twice
D|-------------------------------|
A|-------------------------------|
E|-------------------------------|

Verse:

  A

No good, can't speak, wound up, no sleep

  A 

Sky diver, insider, skip rope, stunt flyer

  D                           A

Wounded lover, got no time on hand

  A

One last cycle, thrill freak, Uncle Sam

  D                                  A

Pause for business, know you'll understand

  D                             A

Judge and jury walk out hand in hand

---

There's no chorus because I don't think this song has a chorus.  The intro is played with
two guitars, but I only tabbed one.  The D and A chords are standard blues chords; listen
to the song to see how they're played.  The chord hit just before the saxophone solo is
an open G.
comments
print report bad tab
1 comment total.
+1 reply
robjway1 wrote on February 3 2008, 12:35 pm

 



-----------------------------------------------------------------------
Casino Boogie – Rolling
Stones
-----------------------------------------------------------------------
Tabbed by: Rob Way
Email:
robjway1@cox.net

Tuning:
standard

e|---3-10-10-10-9-9------------------
B|---0-0--0---------10-9-------------
G|----------------------------
------- Play 2x

D|-----------------------------------
A|-----------------------------------
E|-----------------------------------


e|-----------------------------------
B|-----------------------------------
G|-----------------------------------
D|
-----------------------------------
A|-----------------------------------
E|-----------------------------------


C
hords are bluesy. 5th fret A and 5th fret D.
Don’t think I need to write it out. (5/7- 9-10 ect)
This is my first
one so take it easy on me.. Love the STONES

Verse:

A

No good, can't speak, wound up, no sleep

A

Sky
diver, insider, skip rope, stunt flyer

D A

Wounded lover, got no time on hand


A

One last cycle, thrill freak, Uncle Sam

D A

Pause for business, know
you'll understand

D A

Judge and jury walk out hand in hand




| / slide up
|
\ slide down
| h hammer-on
| p pull-off
| ~ vibrato
| + harmonic
| x Mute
note
=======================================================================

I want to post or [tab]
guest
You may want to rate the tab now too:
select rating
Please do not post tabs as comments. Select "correction" instead!