Oops, an error
Loading. Please wait.
We have Chord Pro version of Dead Flowers.
It's the closest thing you can get to the original song and it has interactive parts. Check out the tab »
×
662 views 3 this week
no commentswrite comment
1 2 3 4 5
3 more votes to show rating
add to favorites
×
Save as Personal and add changes to this tab that will be seen only by you. Learn more ›
×
You can save this tab as Personal to edit and correct it or add notes. All changes will be seen only by you. Learn more »
launch autoscroll
font size
0
reset
how to read this tab
guitar tuner
backing track
0:00
0:00
edit
Autoscroll
slow
fast
+/-
esc
set tempo
stop
Author
Difficulty
DEAD FLOWERS

As recorded by The Rolling Stones
(From the 1971 Album STICKY FINGERS)

Words and Music by Mick Jagger & Keith Richards

Transcribed by Slowhand


Gtr I (E A D G B E) - 'Mick Jagger - Acoustic Guitar'
Gtr II (E A D G B E) - 'Keith Richards - Electric Guitar'
Gtr III (E A D G B E) - 'Mick Taylor - Electric Guitar'


 Intro
  Q=126
  Em/D  D                   A
 1/4   4/4
  Gtr I (Ac. Gtr.)
  E E   Q   E E +E  E E E   Q   E E +E  E E E
|-0-0-|-2---2-2-(2)-2-2-x-|-0---0-0-(0)-0-0-x-|
|-0-0-|-3---3-3-(3)-3-3-x-|-2---2-2-(2)-2-2-x-|
|-0-0-|-2---2-2-(2)-2-2-x-|-2---2-2-(2)-2-2-x-|
|-0-0-|-0---0-0-(0)-0-0-x-|-2---2-2-(2)-2-2-x-|
|-0-0-|-------------------|-0---0-0-(0)-0-0-x-|
|-----|-------------------|-------------------|
|
| Gtr II (Clean El. Gtr.)
| W     W                   W
|-----|-------------------|-------------------|
|-----|-------------------|-------------------|
|-----|-------------------|-------------------|
|-----|-------------------|-------------------|
|-----|-------------------|-------------------|
|-----|-------------------|-------------------|
|
| Gtr III (Clean El. Gtr.)
| W     E E E E +E  E Q     E E E E +E  E Q
|-----|-------2-(2)-------|-------0-(0)-------|
|-----|---3---------3-----|---2---------2-----|
|-----|-----2---------2---|-----2---------2---|
|-----|-0-----------------|-------------------|
|-----|-------------------|-0-----------------|
|-----|-------------------|-------------------|


  G                   D
  Q   E E +E  E E E   Q   E  E  +E  E E E
|-3---3-3-(3)-3-3-x-|-2---2--2--(2)-2-2-x-||
|-0---0-0-(0)-0-0-x-|-3---3--3--(3)-3-3-x-||
|-0---0-0-(0)-0-0-x-|-2---2--2--(2)-2-2-x-||
|-0---0-0-(0)-0-0-x-|-0---0--0--(0)-0-0-x-||
|-2---2-2-(2)-0-0-x-|---------------------||
|-3---3-3-(3)-3-3-x-|---------------------||
|
| E E H         E E   E E E  E  +H
|-------------------|---------------------||
|-------------------|-------10-(10)-------||
|-7h9p7-------------|-7h9-7--7--(7)-------||
|---------------7h9-|---------------------||
|-------------------|---------------------||
|-------------------|---------------------||
|
| H        E  E E E   E E E  E  +H
|-------------------|---2-0---------------||
|-3--------3--0---0-|--------3--(3)-------||
|-0--------0----0---|---------------------||
|-0--------0--------|-0-------------------||
|-------------------|---------------------||
|-------------------|---------------------||


   1st & 2nd Verses
    D                   A
    Q   E E +E  E E E   Q   E E +E  E E E
||--2---2-2-(2)-2-2-x-|-0---0-0-(0)-0-0-x-|
||o-3---3-3-(3)-3-3-x-|-2---2-2-(2)-2-2-x-|
||--2---2-2-(2)-2-2-x-|-2---2-2-(2)-2-2-x-|
||--0---0-0-(0)-0-0-x-|-2---2-2-(2)-2-2-x-|
||o-------------------|-0---0-0-(0)-0-0-x-|
||--------------------|-------------------|
|
|   Gtr III
|   E E E E +E  E E E   E E E E +E  E E E
||------------------0-|-------0-(0)-------|
||o---7---8-(8)-7-----|---5---------0---0-|
||------7---------7---|-----6-------------|
||--0-----------------|-7-------------7---|
||o-------------------|-------------------|
||--------------------|-------------------|


  G                   D
  Q   E E +E  E E E   Q   E E +E  E E E
|-3---3-3-(3)-3-3-x-|-2---2-2-(2)-2-2-x-|
|-0---0-0-(0)-0-0-x-|-3---3-3-(3)-3-3-x-|
|-0---0-0-(0)-0-0-x-|-2---2-2-(2)-2-2-x-|
|-0---0-0-(0)-0-0-x-|-0---0-0-(0)-0-0-x-|
|-2---2-2-(2)-0-0-x-|-------------------|
|-3---3-3-(3)-3-3-x-|-------------------|
|
| E E E E +E  E E E   E E E E +E  E E E
|-------0-(0)-------|-------0-(0)-----0-|
|---3---------3---0-|---7---------7-----|
|-----4---------4---|-----7---------7---|
|-5-----------------|-0-----------------|
|-------------------|-------------------|
|-------------------|-------------------|


                      A
  Q   E E +E  E E E   Q   E E +E  E E E
|-2---2-2-(2)-2-2-x-|-0---0-0-(0)-0-0-x-|
|-3---3-3-(3)-3-3-x-|-2---2-2-(2)-2-2-x-|
|-2---2-2-(2)-2-2-x-|-2---2-2-(2)-2-2-x-|
|-0---0-0-(0)-0-0-x-|-2---2-2-(2)-2-2-x-|
|-------------------|-0---0-0-(0)-0-0-x-|
|-------------------|-------------------|
|
| Gtr II
| W                   W
|-------------------|-------------------|
|-------------------|-------------------|
|-------------------|-------------------|
|-------------------|-------------------|
|-------------------|-------------------|
|-------------------|-------------------|
|
| Gtr III
| E E E E +E  E E E   E E E E +E  E E E
|-----------------0-|-------0-(0)-------|
|---7---8-(8)-7-----|---5---------0---0-|
|-----7---------7---|-----6-------------|
|-0-----------------|-7-------------7---|
|-------------------|-------------------|
|-------------------|-------------------|


  G                     D
  Q   E E +E  E E E      Q    E  E +E  E E E
|-3---3-3-(3)-3-3-x-|----2----2--2-(2)-2-2-x-|
|-0---0-0-(0)-0-0-x-|----3----3--3-(3)-3-3-x-|
|-0---0-0-(0)-0-0-x-|----2----2--2-(2)-2-2-x-|
|-0---0-0-(0)-0-0-x-|----0----0--0-(0)-0-0-x-|
|-2---2-2-(2)-0-0-x-|------------------------|
|-3---3-3-(3)-3-3-x-|------------------------|
|
| W                   a  E  E E  E  E  E E E
|-------------------|------------------------|
|-------------------|------10----------------|
|-------------------|-9s11----9s11--7----7-7-|
|-------------------|------------------9-----|
|-------------------|------------------------|
|-------------------|------------------------|
|
| E E E E +E  E E E      E  E E  E +E  E E E
|-------0-(0)-------|------------0-(0)-----0-|
|---3---------3---0-|-------7----------7-----|
|-----4---------4---|---------7----------7---|
|-5-----------------|----0-------------------|
|-------------------|------------------------|
|-------------------|------------------------|


                        A
   Q    E E +E  E E E   Q   E E +E  E E E
|--2----2-2-(2)-2-2-x-|-0---0-0-(0)-0-0-x-|
|--3----3-3-(3)-3-3-x-|-2---2-2-(2)-2-2-x-|
|--2----2-2-(2)-2-2-x-|-2---2-2-(2)-2-2-x-|
|--0----0-0-(0)-0-0-x-|-2---2-2-(2)-2-2-x-|
|---------------------|-0---0-0-(0)-0-0-x-|
|---------------------|-------------------|
|
|  ~~~
| +Q.     E  H          W
|---------------------|-------------------|
|---------------------|-------------------|
|-(7)-----------------|-------------------|
|---------------------|-------------------|
|---------------------|-------------------|
|---------------------|-------------------|
|
|  E  E E E +E  E E E   E E E E +E  E E E
|-------------------0-|-------0-(0)-------|
|-----7---8-(8)-7-----|---5---------0---0-|
|-------7---------7---|-----6-------------|
|--0------------------|-7-------------7---|
|---------------------|-------------------|
|---------------------|-------------------|


  G                   D
  Q   E E +E  E E E    Q       E  E +E   E  E E
|-3---3-3-(3)-3-3-x-|--2-------2--2-(2)--2--2-x-|
|-0---0-0-(0)-0-0-x-|--3-------3--3-(3)--3--3-x-|
|-0---0-0-(0)-0-0-x-|--2-------2--2-(2)--2--2-x-|
|-0---0-0-(0)-0-0-x-|--0-------0--0-(0)--0--0-x-|
|-2---2-2-(2)-0-0-x-|---------------------------|
|-3---3-3-(3)-3-3-x-|---------------------------|
|
| H        Q    E E   +E  E a  E  E  E   E  E E
|-------------------|---------------------------|
|-------------------|------------10-12--10------|
|-----------------7-|-(7)---9s11-----------11s9-|
|-------------------|---------------------------|
|-------------------|---------------------------|
|-------------------|---------------------------|
|
| E E E E +E  E E E    E  E    E  E +E   E  E E
|-------0-(0)-------|-------------0-(0)-------0-|
|---3---------3---0-|-----7--------------7------|
|-----4---------4---|----------7------------7---|
|-5-----------------|--0------------------------|
|-------------------|---------------------------|
|-------------------|---------------------------|


                      A
  Q   E E +E  E E E   Q   E E +E  E E E
|-2---2-2-(2)-2-2-x-|-0---0-0-(0)-0-0-x-|
|-3---3-3-(3)-3-3-x-|-2---2-2-(2)-3-2-x-|
|-2---2-2-(2)-2-2-x-|-2---2-2-(2)-2-2-x-|
|-0---0-0-(0)-0-0-x-|-2---2-2-(2)-2-2-x-|
|-------------------|-0---0-0-(0)-0-0-x-|
|-------------------|-------------------|
|
| ~
| H        H          W
|-------------------|-------------------|
|-------------------|-------------------|
|-7-----------------|-------------------|
|-------------------|-------------------|
|-------------------|-------------------|
|-------------------|-------------------|
|
| E E E E +E  E E E   E E E E +E  E E E
|-----------------0-|-------0-(0)-------|
|---7---8-(8)-7-----|---5---------0---0-|
|-----7---------7---|-----6-------------|
|-0-----------------|-7-------------7---|
|-------------------|-------------------|
|-------------------|-------------------|


  G                     D
  Q   E E +E  E E E      Q    E E +E  E E E
|-3---3-3-(3)-3-3-x-|----2----2-2-(2)-2-2-x-||
|-0---0-0-(0)-0-0-x-|----3----3-3-(3)-3-3-x-||
|-0---0-0-(0)-0-0-x-|----2----2-2-(2)-2-2-x-||
|-0---0-0-(0)-0-0-x-|----0----0-0-(0)-0-0-x-||
|-2---2-2-(2)-0-0-x-|-----------------------||
|-3---3-3-(3)-3-3-x-|-----------------------||
|
|                               ~~~~~~
| W                   a  E  E E E +H
|-------------------|-----------------------||
|-------------------|------10---------------||
|-------------------|-9s11----9-7-(7)-------||
|-------------------|-----------------------||
|-------------------|-----------------------||
|-------------------|-----------------------||
|
| E E E E +E  E E E      E  E E E +E  E E E
|-------0-(0)-------|-----------0-(0)-----0-||
|---3---------3---0-|-------7---------7-----||
|-----4---------4---|---------7---------7---||
|-5-----------------|----0------------------||
|-------------------|-----------------------||
|-------------------|-----------------------||


 Chorus
  A
  Q  E E +E  E E E    Q      E  E +E  E  E E
|-0--0-0-(0)-0-0-x-|--0------0--0-(0)-0--0-x-|
|-2--2-2-(2)-2-2-x-|--2------2--2-(2)-2--2-x-|
|-2--2-2-(2)-2-2-x-|--2------2--2-(2)-2--2-x-|
|-2--2-2-(2)-2-2-x-|--2------2--2-(2)-2--2-x-|
|-0--0-0-(0)-0-0-x-|--0------0--0-(0)-0--0-x-|
|------------------|-------------------------|
|
| W                   Q   a  E  E  E  E  E E
|------------------|-------------------------|
|------------------|-----------10-12p10------|
|------------------|------9s11----------11s9-|
|------------------|-------------------------|
|------------------|-------------------------|
|------------------|-------------------------|
|
| W                  +W
|------------------|-------------------------|
|------------------|-------------------------|
|------------------|-------------------------|
|------------------|-------------------------|
|-0----------------|-(0)---------------------|
|------------------|-------------------------|


  D
  Q   E  E      +E   E E E   Q   E E +E  E E E
|-2---2--2------(2)--2-2-x-|-2---2-2-(2)-2-2-x-|
|-3---3--3------(3)--3-3-x-|-3---3-3-(3)-3-3-x-|
|-2---2--2------(2)--2-2-x-|-2---2-2-(2)-2-2-x-|
|-0---0--0------(0)--0-0-x-|-0---0-0-(0)-0-0-x-|
|--------------------------|-------------------|
|--------------------------|-------------------|
|
| ~~
| Q.     E       H           W
|--------------------------|-------------------|
|--------------------------|-------------------|
|-7------------------------|-------------------|
|--------------------------|-------------------|
|--------------------------|-------------------|
|--------------------------|-------------------|
|
| Q   E  E      +E   E E E   E E E E  E  E E E
|--------------------------|-------------------|
|-------10-----(10)--------|-------------------|
|--------9b11===(9)r-9-7---|-------------------|
|------------------------9-|-7-----------------|
|--------------------------|---9s7-5--7----5h7-|
|--------------------------|-------------7-----|


  A
  Q  E E +E  E E E    Q      E  E +E  E E  E
|-0--0-0-(0)-0-0-x-|--0------0--0-(0)-0-0--x-|
|-2--2-2-(2)-2-2-x-|--2------2--2-(2)-2-2--x-|
|-2--2-2-(2)-2-2-x-|--2------2--2-(2)-2-2--x-|
|-2--2-2-(2)-2-2-x-|--2------2--2-(2)-2-2--x-|
|-0--0-0-(0)-0-0-x-|--0------0--0-(0)-0-0--x-|
|------------------|-------------------------|
|
|                                  ~~~
| W                   E   E  E  E  Q.      E
|------------------|-------------------------|
|------------------|--------10s12-12------10-|
|------------------|--9s=11------------------|
|------------------|-------------------------|
|------------------|-------------------------|
|------------------|-------------------------|
|
| W                  +W
|------------------|-------------------------|
|------------------|-------------------------|
|------------------|-------------------------|
|------------------|-------------------------|
|-0----------------|-(0)---------------------|
|------------------|-------------------------|


  D
   Q  E E     +E    E E  E   Q          E E +E     E  E E
|--2--2-2-----(2)---2-2--x-|-2----------2-2-(2)----2--2-x-|
|--3--3-3-----(3)---3-3--x-|-3----------3-3-(3)----3--3-x-|
|--2--2-2-----(2)---2-2--x-|-2----------2-2-(2)----2--2-x-|
|--0--0-0-----(0)---0-0--x-|-0----------0-0-(0)----0--0-x-|
|--------------------------|------------------------------|
|--------------------------|------------------------------|
|
|  ~~
|  W                         W
|--------------------------|------------------------------|
|--------------------------|------------------------------|
|-11-----------------------|------------------------------|
|--------------------------|------------------------------|
|--------------------------|------------------------------|
|--------------------------|------------------------------|
|
|  Q  E E     +E    E E  E   S    +S  E E E  E    +E  Q
|---------------------7----|------------------------------|
|------------------10---10-|------------------------------|
|-------9b11==(9)r---------|-9b11r(9)p7-9-7--9b11r(9)p7---|
|--------------------------|------------------------------|
|--------------------------|------------------------------|
|--------------------------|------------------------------|


  G
   Q           E E +E  E E E   Q  E E +E  E E E
|--3-----------3-3-(3)-3-3-x-|-3--3-3-(3)-3-3-x-|
|--0-----------0-0-(0)-0-0-x-|-0--0-0-(0)-0-0-x-|
|--0-----------0-0-(0)-0-0-x-|-0--0-0-(0)-0-0-x-|
|--0-----------0-0-(0)-0-0-x-|-0--0-0-(0)-0-0-x-|
|--2-----------2-2-(2)-0-0-x-|-2--2-2-(2)-0-0-x-|
|--3-----------3-3-(3)-3-3-x-|-3--3-3-(3)-3-3-x-|
|
|  E      +E   Q    H          W
|----------------------------|------------------|
|-15-------------------------|------------------|
|-14pb16r(14)-12-------------|------------------|
|----------------------------|------------------|
|----------------------------|------------------|
|----------------------------|------------------|
|
|  W                           W
|----------------------------|------------------|
|----------------------------|------------------|
|----------------------------|------------------|
|----------------------------|------------------|
|----------------------------|------------------|
|----------------------------|------------------|


  D
   Q            E   E      +E   E  E   E    Q   E     E  +E  E E E
|--2------------2---2------(2)--2--2---x--|-2---2-----2--(2)-2-2-x--|
|--3------------3---3------(3)--3--3---x--|-3---3-----3--(3)-3-3-x--|
|--2------------2---2------(2)--2--2---x--|-2---2-----2--(2)-2-2-x--|
|--0------------0---0------(0)--0--0---x--|-0---0-----0--(0)-0-0-x--|
|-----------------------------------------|-------------------------|
|-----------------------------------------|-------------------------|
|
|  E    +E     +H                  Q        W
|-----------------------------------------|-------------------------|
|-10--------------------------------------|-------------------------|
|--9b11r(9)b11-(9)------------------------|-------------------------|
|-----------------------------------------|-------------------------|
|-----------------------------------------|-------------------------|
|-----------------------------------------|-------------------------|
|
|  Q            E   E      +E   E  E  +E    E E E    +E   E  E E E
|------------------------------10---------|-------------------------|
|------------------10b12==(10)----10r(10)-|-8-8---------------------|
|-----------------------------------------|-----9b11r(9)--7----7-7--|
|-----------------------------------------|------------------9------|
|-----------------------------------------|-------------------------|
|-----------------------------------------|-------------------------|


  G
   Q              E  E +E  E E E    Q              E  E +E  E E E
|--3--------------3--3-(3)-3-3-x-|--3--------------3--3-(3)-3-3-x-|
|--0--------------0--0-(0)-0-0-x-|--0--------------0--0-(0)-0-0-x-|
|--0--------------0--0-(0)-0-0-x-|--0--------------0--0-(0)-0-0-x-|
|--0--------------0--0-(0)-0-0-x-|--0--------------0--0-(0)-0-0-x-|
|--2--------------2--2-(2)-0-0-x-|--2--------------2--2-(2)-0-0-x-|
|--3--------------3--3-(3)-3-3-x-|--3--------------3--3-(3)-3-3-x-|
|
|  E     +E      +H          Q      E     +E      +H          Q
|--------------------------------|--------------------------------|
|-15-----------------------------|-15-----------------------------|
|-14b16r(14)b16-(14)-------------|-14b16r(14)b16-(14)-------------|
|--------------------------------|--------------------------------|
|--------------------------------|--------------------------------|
|--------------------------------|--------------------------------|
|
|  ~~~~~~
| +H.                        Q      W
|--------------------------------|--------------------------------|
|--------------------------------|--------------------------------|
|-(7)----------------------------|--------------------------------|
|--------------------------------|--------------------------------|
|--------------------------------|--------------------------------|
|--------------------------------|--------------------------------|


  D
   Q            E   E      +E   E E E   Q   E E +E  E E E
|--2------------2---2------(2)--2-2-x-|-2---2-2-(2)-2-2-x--|
|--3------------3---3------(3)--3-3-x-|-3---3-3-(3)-3-3-x--|
|--2------------2---2------(2)--2-2-x-|-2---2-2-(2)-2-2-x--|
|--0------------0---0------(0)--0-0-x-|-0---0-0-(0)-0-0-x--|
|-------------------------------------|--------------------|
|-------------------------------------|--------------------|
|
|  E    +E     +H                 Q     W
|-------------------------------------|--------------------|
|-10----------------------------------|--------------------|
|--9b11r(9)b11-(9)--------------------|--------------------|
|-------------------------------------|--------------------|
|-------------------------------------|--------------------|
|-------------------------------------|--------------------|
|
|  Q            E   E      +E   E E E   E E E E  E  Q   E
|-------------------------------------|--------------------|
|------------------10-----(10)--------|--------------------|
|-------------------9b11===(9)r-9-7---|---7----------------|
|-----------------------------------9-|-7------------------|
|-------------------------------------|---9s7-5--7------5--|
|-------------------------------------|-------------7------|


  G
   Q              E  E +E  E E E    Q              E  E +E  E E E
|--3--------------3--3-(3)-3-3-x-|--3--------------3--3-(3)-3-3-x-|
|--0--------------0--0-(0)-0-0-x-|--0--------------0--0-(0)-0-0-x-|
|--0--------------0--0-(0)-0-0-x-|--0--------------0--0-(0)-0-0-x-|
|--0--------------0--0-(0)-0-0-x-|--0--------------0--0-(0)-0-0-x-|
|--2--------------2--2-(2)-0-0-x-|--2--------------2--2-(2)-0-0-x-|
|--3--------------3--3-(3)-3-3-x-|--3--------------3--3-(3)-3-3-x-|
|
|  E     +E      +H          Q      E     +E      +H          Q
|--------------------------------|--------------------------------|
|-15-----------------------------|-15-----------------------------|
|-14b16r(14)b16-(14)-------------|-14b16r(14)b16-(14)-------------|
|--------------------------------|--------------------------------|
|--------------------------------|--------------------------------|
|--------------------------------|--------------------------------|
|
| +H.                        Q      W
|--------------------------------|--------------------------------|
|--------------------------------|--------------------------------|
|--------------------------------|--------------------------------|
|--------------------------------|--------------------------------|
|-(5)----------------------------|--------------------------------|
|--------------------------------|--------------------------------|


  D
   Q            E  E     +E  E  E E    Q    E E +E   E E E
|--2------------2--2-----(2)-2--2-x-|--2----2-2-(2)--2-2-x-|
|--3------------3--3-----(3)-3--3-x-|--3----3-3-(3)--3-3-x-|
|--2------------2--2-----(2)-2--2-x-|--2----2-2-(2)--2-2-x-|
|--0------------0--0-----(0)-0--0-x-|--0----0-0-(0)--0-0-x-|
|-----------------------------------|----------------------|
|-----------------------------------|----------------------|
|
|  E    +E     +H               Q      W
|-----------------------------------|----------------------|
|-10--------------------------------|----------------------|
|--9b11r(9)b11-(9)------------------|----------------------|
|-----------------------------------|----------------------|
|-----------------------------------|----------------------|
|-----------------------------------|----------------------|
|
|  Q            E  E     +E  E  E E   +E  E E E  S S E E E
|----------------------------7------|----------------------|
|------------------------------10---|----------------------|
|------------------9b11==(9)------9r|=(9)-7----------------|
|-----------------------------------|-------9-7------------|
|-----------------------------------|------------9s7p5---5-|
|-----------------------------------|------------------7---|


                                                 1.
                       A                          G
   Q   E E +E  E E E    Q         E E +E  E E E   Q  E E +E  E E E
|--2---2-2-(2)-2-2-x-|--0---------0-0-(0)-0-0-x-|-3--3-3-(3)-3-3-x-|
|--3---3-3-(3)-3-3-x-|--2---------2-2-(2)-2-2-x-|-0--0-0-(0)-0-0-x-|
|--2---2-2-(2)-2-2-x-|--2---------2-2-(2)-2-2-x-|-0--0-0-(0)-0-0-x-|
|--0---0-0-(0)-0-0-x-|--2---------2-2-(2)-2-2-x-|-0--0-0-(0)-0-0-x-|
|--------------------|--0---------0-0-(0)-0-0-x-|-2--2-2-(2)-0-0-x-|
|--------------------|--------------------------|-3--3-3-(3)-3-3-x-|
|
|  W                    E     +E  H         Q     H       Q    E E
|--------------------|--------------------------|------------------|
|--------------------|-10-----------------------|------------------|
|--------------------|--9pb11r(9)-9-------------|------------------|
|--------------------|--------------------------|--------------7h9-|
|--------------------|--------------------------|------------------|
|--------------------|--------------------------|------------------|
|
| +H.            Q      W                         W
|--------------------|--------------------------|------------------|
|--------------------|--------------------------|------------------|
|--------------------|--------------------------|------------------|
|--------------------|--------------------------|------------------|
|-(5)----------------|--------------------------|------------------|
|--------------------|--------------------------|------------------|


                       2.
  D                     G                    D
  Q   E E +E  E E E      Q   E E +E  E E E    Q   E E +E  E  E E
|-2---2-2-(2)-2-2-x--||--3---3-3-(3)-3-3-x-|--2---2-2-(2)-2--2-x-----||
|-3---3-3-(3)-3-3-x-o||--0---0-0-(0)-0-0-x-|--3---3-3-(3)-3--3-x-----||
|-2---2-2-(2)-2-2-x--||--0---0-0-(0)-0-0-x-|--2---2-2-(2)-2--2-x-----||
|-0---0-0-(0)-0-0-x--||--0---0-0-(0)-0-0-x-|--0---0-0-(0)-0--0-x-----||
|-------------------o||--2---2-2-(2)-0-0-x-|-------------------------||
|--------------------||--3---3-3-(3)-3-3-x-|-------------------------||
|
| E E E E +H             Q.    E  E  E E E   +H        E  E  E E
|--------------------||--------------------|-------------------------||
|-------------------o||--------------------|-------------------------||
|-7h9-7-7-(7)--------||------------------7-|-(7)-------------7-9b11==||
|--------------------||--------------7-9---|-----------7--9----------||
|-------------------o||--5-----7s=9--------|-------------------------||
|--------------------||--------------------|-------------------------||
|
| W                      H.            E E    E E E E +E  Q.
|--------------------||--------------------|-------------------------||
|-------------------o||-10-----------------|-------------------------||
|--------------------||--7-----------------|--7h9-7-7-(7)------------||
|--------------------||----------------7h9-|--------------7----------||
|-------------------o||--------------------|-------------------------||
|--------------------||--------------------|-------------------------||


 Guitar Solo
  D                         A
   Q   E E +E   E E     E    Q   E E +E E E E
|--2---2-2-(2)--2-2-----x-|--0---0-0-(0)0-0-x-|
|--3---3-3-(3)--3-3-----x-|--2---2-2-(2)2-2-x-|
|--2---2-2-(2)--2-2-----x-|--2---2-2-(2)2-2-x-|
|--0---0-0-(0)--0-0-----x-|--2---2-2-(2)2-2-x-|
|-------------------------|--0---0-0-(0)0-0-x-|
|-------------------------|-------------------|
|
| +H        E   E S +E.     +H        E E E E
|-----------7-------------|-------------------|
|--------------10---------|-------------------|
|-(9)-------------9r(9)---|-(9)-----------7---|
|-------------------------|-----------7h9---9-|
|-------------------------|-------------------|
|-------------------------|-------------------|
|
|  W                         W
|-------------------------|-------------------|
|-------------------------|-10----------------|
|-------------------------|--7----------------|
|-------------------------|-------------------|
|-------------------------|-------------------|
|-------------------------|-------------------|


  G                         D
   Q       E  E +E  E E E    Q   E E +E E E E
|--3-------3--3-(3)-3-3-x-|--2---2-2-(2)2-2-x-|
|--0-------0--0-(0)-0-0-x-|--3---3-3-(3)3-3-x-|
|--0-------0--0-(0)-0-0-x-|--2---2-2-(2)2-2-x-|
|--0-------0--0-(0)-0-0-x-|--0---0-0-(0)0-0-x-|
|--2-------2--2-(2)-0-0-x-|-------------------|
|--3-------3--3-(3)-3-3-x-|-------------------|
|
|                            ~~~
|  E E    +E  E  E  E E E   +H        E E E E
|-------------------------|-------------------|
|-10----------------------|-------------------|
|----9b11r(9)p7--9--7---7-|-(7)-----------7---|
|---------------------9---|-----------7h9---9-|
|-------------------------|-------------------|
|-------------------------|-------------------|
|
|  W                         W
|-------------------------|-------------------|
|-10----------------------|-10----------------|
|--7----------------------|--7----------------|
|-------------------------|-------------------|
|-------------------------|-------------------|
|-------------------------|-------------------|


                                    A
   Q       E  E +E  E    E      E    Q   E E +E  E E E
|--2-------2--2-(2)-2----2------x-|--0---0-0-(0)-0-0-x-|
|--3-------3--3-(3)-3----3------x-|--2---2-2-(2)-2-2-x-|
|--2-------2--2-(2)-2----2------x-|--2---2-2-(2)-2-2-x-|
|--0-------0--0-(0)-0----0------x-|--2---2-2-(2)-2-2-x-|
|---------------------------------|--0---0-0-(0)-0-0-x-|
|---------------------------------|--------------------|
|
|                |----3----|
|  E  Q       E  Q     Q   Q         E E E E +E  E E E
|-10------------------------------|--------------------|
|----10b12---10--8----10----------|--------------------|
|--------------------------9b11---|------7-7-(7)-----7-|
|---------------------------------|--7h9---------7h9---|
|---------------------------------|--------------------|
|---------------------------------|--------------------|
|
|  W                                 W
|---------------------------------|--------------------|
|---------------------------------|-10-----------------|
|---------------------------------|--7-----------------|
|---------------------------------|--------------------|
|---------------------------------|--------------------|
|---------------------------------|--------------------|


  G                         D
   Q       E  E +E  E E E    Q   E E +E E E E
|--3-------3--3-(3)-3-3-x-|--2---2-2-(2)2-2-x--|
|--0-------0--0-(0)-0-0-x-|--3---3-3-(3)3-3-x--|
|--0-------0--0-(0)-0-0-x-|--2---2-2-(2)2-2-x--|
|--0-------0--0-(0)-0-0-x-|--0---0-0-(0)0-0-x--|
|--2-------2--2-(2)-0-0-x-|--------------------|
|--3-------3--3-(3)-3-3-x-|--------------------|
|
|                            ~~~
|  E E    +E  E  E  E E E   +H        E E E E
|-------------------------|--------------------|
|-10----------------------|--------------------|
|----9b11r(9)p7--9--7---7-|-(7)-----------7----|
|---------------------9---|-----------7h9---9--|
|-------------------------|--------------------|
|-------------------------|--------------------|
|
|  W                         W
|-------------------------|--------------------|
|-10----------------------|-10-----------------|
|--7----------------------|--7-----------------|
|-------------------------|--------------------|
|-------------------------|--------------------|
|-------------------------|--------------------|


                                  A
  Q      E E     +E    E E    E    Q        E  E +E E E E
|-2------2-2-----(2)---2-2----x-|--0--------0--0-(0)0-0-x-|
|-3------3-3-----(3)---3-3----x-|--2--------2--2-(2)2-2-x-|
|-2------2-2-----(2)---2-2----x-|--2--------2--2-(2)2-2-x-|
|-0------0-0-----(0)---0-0----x-|--2--------2--2-(2)2-2-x-|
|-------------------------------|--0--------0--0-(0)0-0-x-|
|-------------------------------|-------------------------|
|
| Q      E E     +E    E Q         E E     +Q     E E E E
|-------------------------------|-------------------------|
|-------10------------10--------|-10----------------------|
|-9b11-----9b11==(9)r----9b11---|----9pb11r(9)--------7---|
|-------------------------------|-----------------7h9---9-|
|-------------------------------|-------------------------|
|-------------------------------|-------------------------|
|
| W                                W
|-------------------------------|-------------------------|
|-------------------------------|-10----------------------|
|-------------------------------|--7----------------------|
|-------------------------------|-------------------------|
|-------------------------------|-------------------------|
|-------------------------------|-------------------------|


  G                             D
   Q       E  E +E   E E    E    Q  E E +E   E E  E
|--3-------3--3-(3)--3-3----x-|--2--2-2-(2)--2-2--x------|
|--0-------0--0-(0)--0-0----x-|--3--3-3-(3)--3-3--x------|
|--0-------0--0-(0)--0-0----x-|--2--2-2-(2)--2-2--x------|
|--0-------0--0-(0)--0-0----x-|--0--0-0-(0)--0-0--x------|
|--2-------2--2-(2)--0-0----x-|--------------------------|
|--3-------3--3-(3)--3-3----x-|--------------------------|
|
|  E  Q       E  E   E Q         Q  Q    E   Q    E
|-10--------------------------|-------------10-----------|
|----10b12---10--8--10--------|------------------10b12===|
|----------------------9b11---|--7--7--------------------|
|-----------------------------|--------------------------|
|-----------------------------|--------------------------|
|-----------------------------|--------------------------|
|
|  W                             W
|-----------------------------|--------------------------|
|-10--------------------------|-10-----------------------|
|--7--------------------------|--7-----------------------|
|-----------------------------|--------------------------|
|-----------------------------|--------------------------|
|-----------------------------|--------------------------|


                                 A
    Q      E  E +E      E  E E    Q           E E +E  E E E
|---2------2--2-(2)-----2--2-x-|--0-----------0-0-(0)-0-0-x-|
|---3------3--3-(3)-----3--3-x-|--2-----------2-2-(2)-2-2-x-|
|---2------2--2-(2)-----2--2-x-|--2-----------2-2-(2)-2-2-x-|
|---0------0--0-(0)-----0--0-x-|--2-----------2-2-(2)-2-2-x-|
|------------------------------|--0-----------0-0-(0)-0-0-x-|
|------------------------------|----------------------------|
|
|  +E    E E  E  E     +E  E E    E     +S  S E E +E  E E E
|------------------------------|----------------------------|
|-(10)r-10-8-10----------------|----------------------------|
|----------------9pb11r(9)-7---|--9pb11r(9)p7---7-(7)-----7-|
|----------------------------9-|--------------9-------7h9---|
|------------------------------|----------------------------|
|------------------------------|----------------------------|
|
|   W                             W
|------------------------------|----------------------------|
|------------------------------|-10-------------------------|
|------------------------------|--7-------------------------|
|------------------------------|----------------------------|
|------------------------------|----------------------------|
|------------------------------|----------------------------|


  G                           D
   Q      E E     +E  E E E    Q     E E +E  E E   E
|--3------3-3-----(3)-3-3-x-|--2-----2-2-(2)-2-2---x-||
|--0------0-0-----(0)-0-0-x-|--3-----3-3-(3)-3-3---x-||
|--0------0-0-----(0)-0-0-x-|--2-----2-2-(2)-2-2---x-||
|--0------0-0-----(0)-0-0-x-|--0-----0-0-(0)-0-0---x-||
|--2------2-2-----(2)-0-0-x-|------------------------||
|--3------3-3-----(3)-3-3-x-|------------------------||
|
|  Q      E E     +E  E E E    S S E E E  E  E S S E
|---------------------------|------------------------||
|--------10-----------------|------------------------||
|--9b11-----9pb11r(9)p7-----|------------------------||
|-----------------------9-7-|----------------------7-||
|---------------------------|--9s7p5---------5-7s9---||
|---------------------------|--------7-5--7----------||
|
|  W                           W
|---------------------------|------------------------||
|-10------------------------|-10---------------------||
|--7------------------------|--7---------------------||
|---------------------------|------------------------||
|---------------------------|------------------------||
|---------------------------|------------------------||


 Chorus
  A
  Q  E E +E  E E E   Q     E  E +E  E  E E
|-0--0-0-(0)-0-0-x-|-0-----0--0-(0)-0--0-x-|
|-2--2-2-(2)-2-2-x-|-2-----2--2-(2)-2--2-x-|
|-2--2-2-(2)-2-2-x-|-2-----2--2-(2)-2--2-x-|
|-2--2-2-(2)-2-2-x-|-2-----2--2-(2)-2--2-x-|
|-0--0-0-(0)-0-0-x-|-0-----0--0-(0)-0--0-x-|
|------------------|-----------------------|
|
| W                  Q  a  E  E  E  E  E E
|------------------|-----------------------|
|------------------|---------10-12p10------|
|------------------|----9s11----------11s9-|
|------------------|-----------------------|
|------------------|-----------------------|
|------------------|-----------------------|
|
| W                  H           E  E  E E
|------------------|-----------------------|
|------------------|-----------------------|
|------------------|---------------------7-|
|------------------|----------------7--9---|
|------------------|-----------------------|
|------------------|-----------------------|


  D
   Q   E E     +E  E E E   Q     E E +E  E E   E
|--2---2-2-----(2)-2-2-x-|-2-----2-2-(2)-2-2---x-|
|--3---3-3-----(3)-3-3-x-|-3-----3-3-(3)-3-3---x-|
|--2---2-2-----(2)-2-2-x-|-2-----2-2-(2)-2-2---x-|
|--0---0-0-----(0)-0-0-x-|-0-----0-0-(0)-0-0---x-|
|------------------------|-----------------------|
|------------------------|-----------------------|
|
|  ~~~
|  Q.    E      H          W
|------------------------|-----------------------|
|------------------------|-----------------------|
|--7---------------------|-----------------------|
|------------------------|-----------------------|
|------------------------|-----------------------|
|------------------------|-----------------------|
|
| +Q.    E     +E  E E E   S S E E E  E  E S S E
|------------------------|-----------------------|
|------------------------|-----------------------|
|-(7)----9pb11r(9)p7-----|-----------------------|
|--------------------9-7-|---------------------7-|
|------------------------|-9s7p5---------5-7s9---|
|------------------------|-------7-5--7----------|


  A
  Q  E E +E  E E E    Q      E  E +E  E E  E
|-0--0-0-(0)-0-0-x-|--0------0--0-(0)-0-0--x-|
|-2--2-2-(2)-2-2-x-|--2------2--2-(2)-2-2--x-|
|-2--2-2-(2)-2-2-x-|--2------2--2-(2)-2-2--x-|
|-2--2-2-(2)-2-2-x-|--2------2--2-(2)-2-2--x-|
|-0--0-0-(0)-0-0-x-|--0------0--0-(0)-0-0--x-|
|------------------|-------------------------|
|
|                                  ~~~
| W                   E   E  E  E  Q.      E
|------------------|-------------------------|
|------------------|--------10s12-12------10-|
|------------------|--9s=11------------------|
|------------------|-------------------------|
|------------------|-------------------------|
|------------------|-------------------------|
|
| W                  +W
|------------------|-------------------------|
|------------------|-------------------------|
|------------------|-------------------------|
|------------------|-------------------------|
|-0----------------|-(0)---------------------|
|------------------|-------------------------|


  D
   Q  E E +E E E E        Q     E E +E  E E E
|--2--2-2-(2)2-2-x-----|--2-----2-2-(2)-2-2-x--|
|--3--3-3-(3)3-3-x-----|--3-----3-3-(3)-3-3-x--|
|--2--2-2-(2)2-2-x-----|--2-----2-2-(2)-2-2-x--|
|--0--0-0-(0)0-0-x-----|--0-----0-0-(0)-0-0-x--|
|----------------------|-----------------------|
|----------------------|-----------------------|
|
|  ~~
|  W                      W
|----------------------|-----------------------|
|----------------------|-----------------------|
|-11-------------------|-----------------------|
|----------------------|-----------------------|
|----------------------|-----------------------|
|----------------------|-----------------------|
|
|  H       E E E E       +E   Q   E +E  E E E
|----------------------|-----------------------|
|----------------------|-----10----------------|
|--------------7-9b11==|=(9)------9r(9)-7------|
|----------7h9---------|--------------------9--|
|----------------------|-----------------------|
|----------------------|-----------------------|


   Q           E E +E  E E E    Q   E E +E  E E E
|--3-----------3-3-(3)-3-3-x-|--3---3-3-(3)-3-3-x-|
|--0-----------0-0-(0)-0-0-x-|--0---0-0-(0)-0-0-x-|
|--0-----------0-0-(0)-0-0-x-|--0---0-0-(0)-0-0-x-|
|--0-----------0-0-(0)-0-0-x-|--0---0-0-(0)-0-0-x-|
|--2-----------2-2-(2)-0-0-x-|--2---2-2-(2)-0-0-x-|
|--3-----------3-3-(3)-3-3-x-|--3---3-3-(3)-3-3-x-|
|
|  E      +E   Q    H           W
|----------------------------|--------------------|
|-15-------------------------|--------------------|
|-14pb16r(14)-12-------------|--------------------|
|----------------------------|--------------------|
|----------------------------|--------------------|
|----------------------------|--------------------|
|
|  W                           +H        H
|----------------------------|--------------------|
|----------------------------|--------------------|
|--7-------------------------|-(7)----------------|
|----------------------------|--------------------|
|----------------------------|--------------------|
|----------------------------|--------------------|


   Q            E  E +E  E E E    Q    E E +E  E E E
|--2------------2--2-(2)-2-2-x-|--2----2-2-(2)-2-2-x--|
|--3------------3--3-(3)-3-3-x-|--3----3-3-(3)-3-3-x--|
|--2------------2--2-(2)-2-2-x-|--2----2-2-(2)-2-2-x--|
|--0------------0--0-(0)-0-0-x-|--0----0-0-(0)-0-0-x--|
|------------------------------|----------------------|
|------------------------------|----------------------|
|
|  E    +E     +H          Q      W
|------------------------------|----------------------|
|-10---------------------------|----------------------|
|--9b11r(9)b11-(9)-------------|----------------------|
|------------------------------|----------------------|
|------------------------------|----------------------|
|------------------------------|----------------------|
|
|  E     E      E  E +E  E E E   +E  E E E +E  E Q
|------------------------------|----------------------|
|--------7---------8-(8)-7---8-|-(8)-7---7-(7)-7------|
|---------------7----------7---|-------7---------7----|
|--0---------------------------|----------------------|
|------------------------------|----------------------|
|------------------------------|----------------------|


  G
   Q              E  E +E  E E E    Q              E  E +E  E E E
|--3--------------3--3-(3)-3-3-x-|--3--------------3--3-(3)-3-3-x-|
|--0--------------0--0-(0)-0-0-x-|--0--------------0--0-(0)-0-0-x-|
|--0--------------0--0-(0)-0-0-x-|--0--------------0--0-(0)-0-0-x-|
|--0--------------0--0-(0)-0-0-x-|--0--------------0--0-(0)-0-0-x-|
|--2--------------2--2-(2)-0-0-x-|--2--------------2--2-(2)-0-0-x-|
|--3--------------3--3-(3)-3-3-x-|--3--------------3--3-(3)-3-3-x-|
|
|  E     +E      +H          Q      E     +E      +H          Q
|--------------------------------|--------------------------------|
|-15-----------------------------|-15-----------------------------|
|-14b16r(14)b16-(14)-------------|-14b16r(14)b16-(14)-------------|
|--------------------------------|--------------------------------|
|--------------------------------|--------------------------------|
|--------------------------------|--------------------------------|
|
|  E      E       E  E +E  E E E   +E      E       E  E +E  E E E
|--------------------0-(0)-----0-|-(0)----------------0-(0)-------|
|---------3----------------3-----|---------3----------------3---3-|
|-----------------4----------4---|-----------------4----------4---|
|--5-----------------------------|--------------------------------|
|--------------------------------|--------------------------------|
|--------------------------------|--------------------------------|


  D
   Q            E  E +E  E E E    Q    E E +E  E E E
|--2------------2--2-(2)-2-2-x-|--2----2-2-(2)-2-2-x--|
|--3------------3--3-(3)-3-3-x-|--3----3-3-(3)-3-3-x--|
|--2------------2--2-(2)-2-2-x-|--2----2-2-(2)-2-2-x--|
|--0------------0--0-(0)-0-0-x-|--0----0-0-(0)-0-0-x--|
|------------------------------|----------------------|
|------------------------------|----------------------|
|
|  E    +E     +H          Q      W
|------------------------------|----------------------|
|-10---------------------------|----------------------|
|--9b11r(9)b11-(9)-------------|----------------------|
|------------------------------|----------------------|
|------------------------------|----------------------|
|------------------------------|----------------------|
|
|  E     E      E  E +E  E E E   +E  E E E +E  E E E
|------------------0-(0)-----0-|-(0)-----0-(0)--------|
|--------7---------------7-----|-----7---------7---0--|
|---------------7----------7---|-------7---------7----|
|--0---------------------------|----------------------|
|------------------------------|----------------------|
|------------------------------|----------------------|


  G
   Q              E  E +E  E E E    Q              E  E +E  E E E
|--3--------------3--3-(3)-3-3-x-|--3--------------3--3-(3)-3-3-x-|
|--0--------------0--0-(0)-0-0-x-|--0--------------0--0-(0)-0-0-x-|
|--0--------------0--0-(0)-0-0-x-|--0--------------0--0-(0)-0-0-x-|
|--0--------------0--0-(0)-0-0-x-|--0--------------0--0-(0)-0-0-x-|
|--2--------------2--2-(2)-0-0-x-|--2--------------2--2-(2)-0-0-x-|
|--3--------------3--3-(3)-3-3-x-|--3--------------3--3-(3)-3-3-x-|
|
|  E     +E      +H          Q      E     +E      +H          Q
|--------------------------------|--------------------------------|
|-15-----------------------------|-15-----------------------------|
|-14b16r(14)b16-(14)-------------|-14b16r(14)b16-(14)-------------|
|--------------------------------|--------------------------------|
|--------------------------------|--------------------------------|
|--------------------------------|--------------------------------|
|
|  E      E       E  E +E  E E E   +E      E       E  E +E  E E E
|--------------------0-(0)-----0-|-(0)----------------0-(0)-------|
|---------3----------------3-----|---------3----------------3---3-|
|-----------------4----------4---|-----------------4----------4---|
|--5-----------------------------|--------------------------------|
|--------------------------------|--------------------------------|
|--------------------------------|--------------------------------|


  D
   Q            E  E +E  E E E    Q    E E +E  E E E
|--2------------2--2-(2)-2-2-x-|--2----2-2-(2)-2-2-x--|
|--3------------3--3-(3)-3-3-x-|--3----3-3-(3)-3-3-x--|
|--2------------2--2-(2)-2-2-x-|--2----2-2-(2)-2-2-x--|
|--0------------0--0-(0)-0-0-x-|--0----0-0-(0)-0-0-x--|
|------------------------------|----------------------|
|------------------------------|----------------------|
|
|  E    +E     +H          Q      W
|------------------------------|----------------------|
|-10---------------------------|----------------------|
|--9b11r(9)b11-(9)-------------|----------------------|
|------------------------------|----------------------|
|------------------------------|----------------------|
|------------------------------|----------------------|
|
|  E     E      E  E +E  E E E   +E  E E E +E  E E E
|------------------5-(5)-----0-|-(0)-----5-(5)--------|
|--------7---------------7-----|-----7---------7---7--|
|---------------7----------7---|-------7---------7----|
|--0---------------------------|----------------------|
|------------------------------|----------------------|
|------------------------------|----------------------|


                      A
  Q   E E +E  E E E    Q         E E +E  E E E
|-2---2-2-(2)-2-2-x-|--0---------0-0-(0)-0-0-x-|
|-3---3-3-(3)-3-3-x-|--2---------2-2-(2)-2-2-x-|
|-2---2-2-(2)-2-2-x-|--2---------2-2-(2)-2-2-x-|
|-0---0-0-(0)-0-0-x-|--2---------2-2-(2)-2-2-x-|
|-------------------|--0---------0-0-(0)-0-0-x-|
|-------------------|--------------------------|
|
| W                    E     +E  H         Q
|-------------------|--------------------------|
|-------------------|-10-----------------------|
|-------------------|--9pb11r(9)-9-------------|
|-------------------|--------------------------|
|-------------------|--------------------------|
|-------------------|--------------------------|
|
| E E E E +E  E E E   +W
|---5---5-(5)-----0-|-(0)----------------------|
|-------------7-----|--------------------------|
|-----7---------7---|--------------------------|
|-0-----------------|--------------------------|
|-------------------|--------------------------|
|-------------------|--------------------------|


  G                  D
  Q  E E +E  E E E   E E E E +E  E E E
|-3--3-3-(3)-3-3-x-|-2-2-2-2-(2)-2-0-0--|
|-0--0-0-(0)-0-0-x-|-3-3-3-3-(3)-3-3-3--|
|-0--0-0-(0)-0-0-x-|-2-2-2-2-(2)-2-2-2--|
|-0--0-0-(0)-0-0-x-|-0-0-0-0-(0)-0-0-0--|
|-2--2-2-(2)-0-0-x-|--------------------|
|-3--3-3-(3)-3-3-x-|--------------------|
|
| H       Q    E E   E E E E +H
|------------------|--------------------|
|------------------|--------------------|
|------------------|-7h9-7-7-(7)--------|
|--------------7h9-|--------------------|
|------------------|--------------------|
|------------------|--------------------|
|
| Q  Q    E  E E E   E E E E +H
|----------------0-|--------------------|
|----3----3----3---|-7-----7-(7)--------|
|------------4-----|---7----------------|
|------------------|-----0--------------|
|------------------|--------------------|
|------------------|--------------------|


                      H.=H
                      A
  Q   E E +E  E E E   W
|-2---2-2-(2)-2-2-x-|-0--------|
|-3---3-3-(3)-3-3-x-|-2--------|
|-2---2-2-(2)-2-2-x-|-2--------|
|-0---0-0-(0)-0-0-x-|-2--------|
|-------------------|-0--------|
|-------------------|----------|
|
| W                   W
|-------------------|-5--------|
|-------------------|-5--------|
|-------------------|----------|
|-------------------|----------|
|-------------------|----------|
|-------------------|----------|
|
| Q.    E +E  E Q     W
|-2-----2-(2)-2-2---|-0--------|
|-3-----3-(3)-3-3---|-2--------|
|-2-----2-(2)-2-2---|-2--------|
|-0-----0-(0)-0-0---|-2--------|
|-------------------|-0--------|
|-------------------|----------|


  G                        D
  Q   Q   E E  E      E     W           +W
|-3---3---3-3--3------3--|--2---------|-(2)-----*|
|-0---0---0-0--0------0--|--3---------|-(3)-----*|
|-0---0---0-0--0------0--|--2---------|-(2)-----*|
|-0---0---0-0--0------0--|--0---------|-(0)-----*|
|-0---2---0-2--0------2--|------------|---------*|
|-3---3---3-3--3------3--|------------|---------*|
|
| E E E E E E  E     +E    +W           +W
|------------------------|------------|---------*|
|-------------10---------|------------|---------*|
|-------7-9-7--9b11==(9)-|-(9)--------|-(9)r----*|
|---7h9------------------|------------|---------*|
|------------------------|------------|---------*|
|------------------------|------------|---------*|
|
| W                         W           +W
|-3----------------------|--2---------|-(2)-----*|
|-0----------------------|--3---------|-(3)-----*|
|-0----------------------|--2---------|-(2)-----*|
|-0----------------------|--0---------|-(0)-----*|
|-0----------------------|------------|---------*|
|-3----------------------|------------|---------*|


Duration Legend
---------------
W - whole; H - half; Q - quarter; E - 8th; S - 16th; T - 32nd; X - 64th; a - acciaccatura
+ - note tied to previous; . - note dotted; .. - note double dotted
Uncapitalized letters represent notes that are staccato (1/2 duration)
Irregular groupings are notated above the duration line
Duration letters will always appear directly above the note/fret number it represents the
duration for.  Duration letters with no fret number below them represent rests.  Multi-
bar rests are notated in the form Wxn, where n is the number of bars to rest for.  Low
melody durations appear below the staff

Tablature Legend
----------------
 h   - hammer-on
 p   - pull-off
 b   - bend
 pb  - pre-bend
 r   - bend release (if no number after the r, then release immediately)
 /\  - slide into or out of (from/to "nowhere")
 s   - legato slide
 S   - shift slide
  - natural harmonic
[n]  - artificial harmonic
n(n) - tapped harmonic
 ~   - vibrato
 tr  - trill
 T   - tap
 TP  - trem. picking
 PM  - palm muting
\n/  - tremolo bar dip; n = amount to dip
 \n  - tremolo bar down
 n/  - tremolo bar up
/n\  - tremolo bar inverted dip
 =   - hold bend; also acts as connecting device for hammers/pulls
 <>  - volume swell (louder/softer)
 x   - on rhythm slash represents muted slash
 o   - on rhythm slash represents single note slash

Misc Legend
-----------
 |  - bar
||  - double bar
||o - repeat start
o|| - repeat end
*|  - double bar (ending)
 :  - bar (freetime)
 $  - Segno
 &  - Coda
Tempo markers -  = BPM(8/16=s8/s16), where s8 = swing 8ths, s16 = swing 16ths

            
            
Suggest correction
Creating personal tab
Creating personal tab
You can edit any tab online and save it as your Personal.

You can edit, replace or remove any tab part or add personal notes – all changes will be seen only by you.

Personal tabs can be accessed anytime from any device, even offline.
Learn more »
Give kudos to tab author, rate the tab!
1 2 3 4 5
comments
print report bad tab
guest
You may want to rate the tab now too:
select rating
Wanna post a correction for this tab? Suggest correction