Oops, an error
Loading. Please wait.

Happy tab

version 2
version 2

Whole song

Interactive

2,143 views 63 this week
no commentswrite comment
1 2 3 4 5
x 3
add to favorites
×
Save as Personal and add changes to this tab that will be seen only by you. Learn more ›
×
You can save this tab as Personal to edit and correct it or add notes. All changes will be seen only by you. Learn more »
launch autoscroll
font size
0
reset
how to read this tab
guitar tuner
backing track
0:00
0:00
edit
Autoscroll
slow
fast
+/-
esc
set tempo
stop
HAPPY

As recorded by The Rolling Stones
(From the 1972 Album EXILE ON MAIN ST.)

Words and Music by Mick Jagger & Keith Richards

Transcribed by Slowhand


Gtr I (D G D G B D) - 'Electric Guitar 1 (Open G / Capo 4th fret)'
Gtr II (D G D G B D) - 'Electric Guitar 2  (Open G / Capo 4th fret)'
Gtr III (D A D F# A D) - 'Electric Guitar 3 (Open D)'


 Intro
  Q=130
    C      Csus2add4F/C      C                  Csus2add4  F/C       C   G
 4/4
  Gtr I (El. Gtr. / Open G / Capo 4th fret)
  E  E  Q  Q  e E   Q  E e E E E E   Q  E   E   Q  E S S   E E E E E E E E
|---------------5-|------------x---|---------------------|---------------0-|
|---(5)-5--6----5-|-6--6-6---5-x---|----5---5---6--6-6-6-|-6---6-6-x-5---0-|
|---(5)-5--7----5-|-5--5-5---5-x---|-5--5---5---7--7-7-7-|-5---5-5-x-5---0-|
|----5--5--5--x---|-7--7-7---5-----|-5--5---5---5--5-5-5-|-7---7-7-x-5---0-|
|----5--5--5--x---|-5--5-5---5---5-|-5--5---5---5--5-5-5-|-5-5-5-5-5-5-5-0-|
|-----------------|----------------|---------------------|-----------------|
|
| Gtr II (El. Gtr. / Open G / Capo 4th fret)
| W                 H      Q   Q     Q  S S S S Q  e E     E E E E E E E E
|-----------------|--------x---x---|----5-5-5-5-5--5-----|-----x-5---5---0-|
|-----------------|--------x---x---|-x--5-5-5-5-6--6-----|-6---x-6---5---0-|
|-----------------|--------x---x---|-x--5-5-5-5-7--7-----|-5---x-5---5---0-|
|-----------------|--------x---x---|-x--5-5-5-5-5--------|-7---------------|
|-----------------|----------------|---------------------|-----------------|
|-----------------|----------------|---------------------|-----------------|


        N.C.
  +Q.    E +E  E E E   +E  E  +E. S  E E E E
|-(0)------------5---|-------------------5---|
|-(0)----------5-----|-----------------5-----|
|-(0)---/5-(5)-------|-----0--(0)-0S=5-------|
|-(0)---/5-(5)-----0-|-(0)-0--(0)------------|
|-(0)--------------0-|-(0)-----------------0-|
|--------------------|-----------------------|
|
|  H        E  E E E   +E  Q.        E E E E
|-(0)------------5-0-|-(0)---------------5-0-|
|-(0)----------5---0-|-(0)-------------5---0-|
|-(0)------/5------0-|-(0)-0--------/5-----0-|
|--0-----------------|-----0-----------------|
|--0-----------------|-----------------------|
|--------------------|-----------------------|


                                              G
  +E  E  E S  S  E E E E   +E  E   Q    E E E E
|--------------------5---|------------------5-0--||
|------------------5-----|----------------5---0--||
|-----0----0-/5--5-------|-----0--(0)--/5-----0--||
|-----0------/5----------|-----0--(0)---------0--||
|-(0)----0-------------0-|-(0)-----0----------0--||
|------------------------|-----------------------||
|
| +E  Q.         E E E E   +E  Q.       E E E E
|-(0)----------------5-0-|-(0)--------------5-0--||
|-(0)--------------5---0-|-(0)------------5---0--||
|-(0)-0---------/5-----0-|-(0)-0-------/5-----0--||
|-----0------------------|-----0-----------------||
|------------------------|-----------------------||
|------------------------|-----------------------||


 1st Verse
  G           C/G  G         C/G        C/G
  +E  E E E E  E E E   +E  E E S S  E E E E
|-(0)-0-----0------0-|-(0)-0----------------|
|-(0)-0-----0--1---0-|-(0)-0-1-0-0--0-0-1-0-|
|-(0)-0-----0--0---0-|-(0)-0-0-0-0--0-0-0-0-|
|-(0)---0---0--2---0-|-(0)-0-2-0-0--0-0-2-0-|
|-(0)---0---0--0---0-|-(0)-0-0-0-0--0-0-0-0-|
|--------------------|----------------------|
|
| +E  E Q   E  E E E   +H           E E E E
|-(0)----------------|----------------------|
|-(0)--------------0-|-(0)------------------|
|-(0)-0------------0-|-(0)----------------0-|
|-----0----------0-0-|-(0)----------------0-|
|-------------/4---0-|-(0)---------/4s2p0-0-|
|--------------------|----------------------|


        C/G            N.C.
                                ~~~~~~
  +E  E E E  E E E E    E  E E  E +E  E  E E
|-----0------0-0-----|------------------------|
|-(0)-0-1----0-0-----|------------------------|
|-(0)-0-0----0-0-0-0-|-------0--------0-------|
|-(0)-0-2-0--0-0-0-0-|-----0---/5-(5)---\3-0--|
|-(0)-0-0-0--0-0-0-0-|-/4---------------------|
|--------------------|------------------------|
|
| +H         E E E E   +H          E  E  E E
|--------------------|------------------------|
|--------------------|------------/5--5--5s3--|
|-(0)------------0-0-|-(0)--------------------|
|-(0)----------0-----|------------------------|
|-(0)-------/4-------|------------------------|
|--------------------|------------------------|


      C/G      C/G         C/G        C/G
  E E E E +E E E E   +E  E E S S  E E E E
|------------------|----------------------|
|-----1-0-(0)0-1-0-|-(0)-0-1-0-0--0-0-1-0-|
|-----0-0-(0)0-0-0-|-(0)-0-0-0-0--0-0-0-0-|
|---0-2-0-(0)0-2-0-|-(0)-0-2-0-0--0-0-2-0-|
|-0---0-0-(0)0-0-0-|-(0)---0-0-0--0-0---0-|
|------------------|----------------------|
|
| H        E E E E   +Q    E E    E E E E
|------------------|----------------------|
|-0----------------|--------------------0-|
|---------/4s2-0-0-|-(0)--------------0-0-|
|------------------|----------------0---0-|
|------------------|-------0-0---/4-----0-|
|------------------|----------------------|


                   C/G              C/G G C
  +E  E E S S  E E E E    E  E  E E E E E S S
|----------------------|-----------------------|
|-(0)-0---0-0--0-0-1-0-|--0--0--0-0-1-1-0-5-5--|
|-(0)-0-0-0-0--0-0-0-0-|--0--0--0-0-0-0-0-5-5--|
|-(0)-0-0-0-0--0-0-2-0-|--0--0--0-0-2-2-0-5-5--|
|-(0)---0-0-0--0-0-0-0-|--0--0--0-0-0-0-0-5-5--|
|----------------------|-----------------------|
|
| +Q.     E    E E E E   +E  Q.     E E Q
|----------------------|-----------------------|
|-(0)----------------0-|-(0)-1--------1-0------|
|-(0)----------------0-|-(0)-0--------2-0------|
|-(0)----------------0-|-(0)-0-----------------|
|-(0)-----0---/4-x-0---|-----0-----------------|
|----------------------|-----------------------|


 Pre-Chorus
  $
  $$
  C       Csus2Cdd4Csus2add4   C                 Csus2Cdd4F/C          C G
  E E E E Q  E E   E E E E +E  E E S S   E E E E Q  E E   Q  E E +Q    E E
|----------------|---------------------|----------------|----------------0---||
|-5-5-5-5-6--6-5-|-6-6-6-6-(6)-5-5-5-5-|-5-5-5-5-6--6-5-|-6--6-6-(6)---5-0---||
|-5-5-5-5-7--7-5-|-7-7-7-7-(7)-5-5-5-5-|-5-5-5-5-7--7-5-|-5--5-5-(5)---5-0---||
|-5-5-5-5-5--5-5-|-5-5-5-5-(5)-5-5-5-5-|-5-5-5-5-5--5-5-|-7--7-7-(7)---5-0---||
|-5-5-5-5-5--5-5-|-5-5-5-5-(5)-5-5-5-5-|-5-5-5-5-5--5-5-|-5--5-5-(5)---5-0---||
|----------------|---------------------|----------------|--------------------||
|
| E E Q   Q  E E   Q   E E  E  E E S S   Q   E E Q  E E   Q  E E  E  E E S S
|----------------|---------------------|----------------|--------------------||
|---5-5---6--6-5-|-6---6-6-----5-------|-----5-5-6--6-6-|-6--6-6-----5-5-0-0-||
|---5-5---7--7-5-|-5---5-5-----5-------|-----5-5-7--7-7-|-5--5-5-----5-5-0-0-||
|---5-5---5------|-7---7-7-----5---5-5-|-5---5-5-5--5-5-|-7--7-7-----5-5-0-0-||
|-5-5-5---5------|-5---5-5-----5---5-5-|-5---5-5-5--5-5-|-5--5-5-----5-5-0-0-||
|----------------|---------------------|----------------|--------------------||


 Chorus
  G     N.C.
  +Q.    E +E  E E E   +E  E  +E. S  E E E E
|-(0)------------5---|-------------------5---|
|-(0)----------5-----|-----------------5-----|
|-(0)---/5-(5)-------|-----0--(0)-0S=5-------|
|-(0)---/5-(5)-----0-|-(0)-0--(0)------------|
|-(0)--------------0-|-(0)-----------------0-|
|--------------------|-----------------------|
|
| +H        E  E E E   +E  Q.        E E E E
|----------------5-0-|-(0)---------------5-0-|
|-(0)----------5---0-|-(0)-------------5---0-|
|-(0)------/5------0-|-(0)-0--------/5-----0-|
|-(0)----------------|-----0-----------------|
|-(0)----------------|-----------------------|
|--------------------|-----------------------|


                  To Coda            To Dbl. Coda
                                               G
  +E  E  E S  S  E E E E    +E  E   Q    E E E E
|--------------------5----|------------------5-0---||
|------------------5------|----------------5---0---||
|-----0----0-/5--5--------|-----0--(0)--/5-----0---||
|-----0------/5-----------|-----0--(0)---------0---||
|-(0)----0-------------0--|-(0)-----0----------0---||
|-------------------------|------------------------||
|
| +E  Q.         E E E E    +E  Q.       E E E E
|-(0)----------------5-0--|-(0)--------------5-0---||
|-(0)--------------5---0--|-(0)------------5---0---||
|-(0)-0---------/5-----0--|-(0)-0-------/5-----0---||
|-----0-------------------|-----0------------------||
|-------------------------|------------------------||
|-------------------------|------------------------||


 2nd Verse
  G     C/GG  C/G G         C/G        C/G5
  +E  E Q   E E E E   +E  E E S S  E E E E
|-(0)-0-------------|----------------------|
|-(0)-0-1---0-1---0-|-(0)-0-1-0-0--0-0-1---|
|-(0)-0-0---0-0---0-|-(0)-0-0-0-0--0-0-0-0-|
|-(0)-0-2---0-2---0-|-(0)-0-2-0-0--0-0-2-0-|
|-(0)-0-0---0-0---0-|-(0)-0-0-0-0--0-0-0-0-|
|-------------------|----------------------|
|
|  Q    Q   E E E E   +Q.     E    E E E E
|-(0)---------------|----------------------|
|-(0)---x-----------|----------------------|
|-(0)---x-------0-0-|-(0)----------------0-|
|--0----x-----0-----|----------------------|
|--0----x--/4-------|---------0---/4s2p0---|
|-------------------|----------------------|


                                        G
  +E  E E E  S S E E E   E  E E E E E E E
|----------------------|------------------|
|----------------1-----|----------------0-|
|-(0)-0----------0-----|----------------0-|
|-(0)-0-2-0--0h2---2-0-|-0--0-2---0-0-2-0-|
|-(0)-0-0-0--0-----0-0-|-0--0-0---0-0-0-0-|
|----------------------|------------------|
|
| +E  E E E  E   E E E   E  E E E E E E E
|----------------------|------------------|
|----------------------|---/5-5-5-5s3-----|
|-(0)-0-----/4s==2p0---|--------------4s2-|
|----------------------|------------------|
|-------0-0-/4s==2p0-0-|------------------|
|----------------------|------------------|


        C/G G    C/G       N.C.
  +E  E e E E  E E E   +E  E  E E E E E  E
|--------------------|---------------------|
|-(0)-0-1---0--0-1-0-|-(0)-----------------|
|-(0)-0-0---0--0-0-0-|-(0)--------0-0------|
|-(0)-0-2---0--0-2-0-|-(0)------0---0------|
|-(0)-0-0---0--0-0-0-|-(0)-0-/4-------4--0-|
|--------------------|---------------------|
|
|  E  E Q   E  E E E   +Q     q   E E Q
|--------------------|---------------------|
|--------------------|---------------------|
|--0----0---0----0-0-|-(0)---/4---0-0-4\---|
|-----0-------/5-----|---------------------|
|------------------0-|-(0)---/4-------4\---|
|--------------------|---------------------|


                               D.S. al Coda
  G    C/G G     C/G           C/G C/G G
   Q   E E  E  E E E    E  E   E E E E E E
|--------------------|-----------------------||
|------1----0--0-1-0-|-----0---1-0-1-1-0-0---||
|--0---0-4--0--0-0-0-|-----0---0-0-0-0-0-0---||
|--0---2-0--0--0-2-0-|--0--0---2-0-2-2-0-0---||
|--0---0----0--0-0-0-|--0--0---0-0-0-0-0-0---||
|--------------------|-----------------------||
|
|  Q   Q   +E  E Q      E  Q.      Q   E E
|--------------------|-----------------------||
|--------------------|----(4)\-----------0---||
|-(0)--0---(0)-------|-/4--4\------0---0-0---||
|------0---(0)-------|-------------------0---||
|--0---0---(0)-------|-/4--4\------0---0-----||
|--------------------|-----------------------||


                          Guitar Solo
  &
  N.C.                G            N.C.
   E  E  E. S +E  E E E    +Q.      E +E  E E E
|-------------------5-0-||-(0)--------------5---|
|-----------------5---0-||-(0)------------5-----|
|-----0-----5-(5)-----0-||-(0)-----/5-(5)-------|
|-----0---------------0-||-(0)-----/5-(5)-----0-|
|-(0)----0------------0-||-(0)----------------0-|
|-----------------------||----------------------|
|
|  E  Q.       E  E E E     H          E  E E E
|-(0)---------------5-0-||-(0)--------------5-0-|
|-(0)-------------5---0-||-(0)------------5---0-|
|-(0)-0-------/5------0-||-(0)--------/5------0-|
|-----0-----------------||--0-------------------|
|-----------------------||--0-------------------|
|-----------------------||----------------------|
|
| Gtr III (El. Gtr. / Open D)
|                                             ~~~
|  H           E  E Q      +E  E E  E +E  E E E
|-----------------------||----------------------|
|-----------------7s9---||-(9)s7---/9-(9)s7-----|
|-----------------------||-------7----------7-7-|
|-----------------------||----------------------|
|-----------------------||----------------------|
|-----------------------||----------------------|


  +E  E  +E.   S  E E    E    E   +E E  E S  S  E  E E E
|------------------------5------|--------------------5---|
|-------------------5-----------|------------------5-----|
|-----0--(0)---0S=5-------------|----0----0-/5--5--------|
|-(0)-0--(0)--------------------|----0------/5-----------|
|-(0)-------------------------0-|-(0)---0--------------0-|
|-------------------------------|------------------------|
|
| +E  Q.          E E    E    E   +E Q.         E  E E E
|-(0)--------------------5----0-|-(0)----------------5-0-|
|-(0)---------------5---------0-|-(0)--------------5---0-|
|-(0)-0----------/5-----------0-|-(0)0---------/5------0-|
|-----0-------------------------|----0-------------------|
|-------------------------------|------------------------|
|-------------------------------|------------------------|
|
|~~~~~                                                 ~
|                 |----3----|
| +Q      E  E    Q    Q    Q      E E  E E    +E  E E E
|-------------------------------|------------------------|
|------------7s===9---/9---/9---|-/9s7----9----(9)s7-----|
|-(7)---------------------------|-------7------------7-7-|
|---------7---------------------|------------------------|
|-------------------------------|------------------------|
|-------------------------------|------------------------|


                           G                 C/GG     C
  +E  E   Q        E   E E  E    +E  E  Q     E  Q     S S
|------------------------5--0-|--(0)-----------------------||
|----------------------5----0-|--(0)-0--------1--0-----5-5-||
|-----0--(0)------/5--------0-|--(0)-0--------0--0-----5-5-||
|-----0--(0)----------------0-|--(0)-0--0-----2--0-----5-5-||
|-(0)-----0-----------------0-|--(0)----0-----0--0-----5-5-||
|-----------------------------|----------------------------||
|
| +E  Q.           E   E E  E    +E  E  Q     Q     Q
|-(0)--------------------5--0-|--(0)-----------------------||
|-(0)------------------5----0-|--(0)-----------------------||
|-(0)-0-----------/5--------0-|--(0)-0--0-----0-----0------||
|-----0-----------------------|------0--0-----0-----0------||
|-----------------------------|---------0-----0-----0------||
|-----------------------------|----------------------------||
|
|  ~~~                 ~~~~~~~~~~~~~~                  ~~~~~~
| +E  E   E    E  +E   Q    E    +E  E  E  E  E  E  E  E
|-----------------------------|----------------------------||
|------------/12-(12)-12---12-|-(12)-0-14s16-12-12-12-12---||
|-(7)-------------------------|----------------------------||
|-----7-----------------------|----------------------------||
|-----------------------------|----------------------------||
|-----------------------------|----------------------------||


 Pre-Chorus
  C          Csus2Cdd4Csus2add4   C
    E  E E E Q  E E   E E E E +E  E E S S
|-------------------|---------------------|
|---5--5-5-5-6--6-5-|-6-6-6-6-(6)-5-5-5-5-|
|---5--5-5-5-7--7-5-|-7-7-7-7-(7)-5-5-5-5-|
|---5--5-5-5-5--5-5-|-5-5-5-5-(5)-5-5-5-5-|
|---5--5-5-5-5--5-5-|-5-5-5-5-(5)-5-5-5-5-|
|-------------------|---------------------|
|
|   E  E Q   Q  E E   Q   E E  E  E E S S
|-------------------|---------------------|
|------5-5---6--6-5-|-6---6-6-----5-------|
|------5-5---7--7-5-|-5---5-5-----5-------|
|------5-5---5------|-7---7-7-----5---5-5-|
|---5--5-5---5------|-5---5-5-----5---5-5-|
|-------------------|---------------------|
|
|~~~~~~
|  +W                 W
|-------------------|---------------------|
|-(12)--------------|---------------------|
|-------------------|---------------------|
|-------------------|---------------------|
|-------------------|---------------------|
|-------------------|---------------------|


          Csus2Cdd4F/C          C G
  E E E E Q  E E   Q  E E +Q    E E
|----------------|----------------0---||
|-5-5-5-5-6--6-5-|-6--6-6-(6)---5-0---||
|-5-5-5-5-7--7-5-|-5--5-5-(5)---5-0---||
|-5-5-5-5-5--5-5-|-7--7-7-(7)---5-0---||
|-5-5-5-5-5--5-5-|-5--5-5-(5)---5-0---||
|----------------|--------------------||
|
| Q   E E Q  E E   Q  E E  E  E E S S
|----------------|--------------------||
|-----5-5-6--6-6-|-6--6-6-----5-5-0-0-||
|-----5-5-7--7-7-|-5--5-5-----5-5-0-0-||
|-5---5-5-5--5-5-|-7--7-7-----5-5-0-0-||
|-5---5-5-5--5-5-|-5--5-5-----5-5-0-0-||
|----------------|--------------------||


 Chorus
  G     N.C.
  +Q.    E +E  E E E   +E  E  +E. S  E E E E
|-(0)------------5---|-------------------5----|
|-(0)----------5-----|-----------------5------|
|-(0)---/5-(5)-------|-----0--(0)-0S=5--------|
|-(0)---/5-(5)-----0-|-(0)-0--(0)-------------|
|-(0)--------------0-|-(0)-----------------0--|
|--------------------|------------------------|
|
|  H        E  E E E   +E  Q.        E E E E
|----------------5-0-|-(0)---------------5-0--|
|-(0)----------5---0-|-(0)-------------5---0--|
|-(0)------/5------0-|-(0)-0--------/5-----0--|
|--0-----------------|-----0------------------|
|--0-----------------|------------------------|
|--------------------|------------------------|


                                              G
  +E  E  E S  S  E E E E   +E  E   Q    E E E E
|--------------------5---|------------------5-0-||
|------------------5-----|----------------5---0-||
|-----0----0-/5--5-------|-----0--(0)--/5-----0-||
|-----0------/5----------|-----0--(0)---------0-||
|-(0)----0-------------0-|-(0)-----0----------0-||
|------------------------|----------------------||
|
| +E  Q.         E E E E   +E  Q.       E E E E
|-(0)----------------5-0-|-(0)--------------5-0-||
|-(0)--------------5---0-|-(0)------------5---0-||
|-(0)-0---------/5-----0-|-(0)-0-------/5-----0-||
|-----0------------------|-----0----------------||
|------------------------|----------------------||
|------------------------|----------------------||


 3rd Verse
  G            C/G G         C/GG       C/G
  +E  E E E  E E E E   +E  E  E S S E E E E
|-(0)-0------0-----0-|-(0)-0----------------|
|-(0)-0------0-1---0-|-(0)-0--1-0-0-0-0-1-0-|
|-(0)-0------0-0---0-|-(0)-0--0-0-0-0-0-0-0-|
|-(0)---0----0-2---0-|-(0)-0--2-0-0-0-0-2-0-|
|-(0)---0----0-0---0-|-(0)-0--0-0-0-0-0-0-0-|
|--------------------|----------------------|
|
| +E  E Q    E E E E   +Q     E E   E E E E
|-(0)----------------|----------------------|
|-(0)---0--------1-0-|-(0)----------0-------|
|-(0)-0-0--------0-0-|-(0)------------------|
|-----0-0------0-----|-------/5s3---0-3s0---|
|-----------/4-------|----------------3s0-0-|
|--------------------|----------------------|


        C/G            N.C.
  +E  E E  E  E  E E S S   +E E E  E +E   E E E
|-----0-------0--0-------|----------------------|
|-(0)-0-1-----0--0-------|----------------------|
|-(0)-0-0-----0--0-0-0---|------0---------0-----|
|-(0)-0-2--0--0--0-0-0---|----0---/5-(5)----3-0-|
|-(0)-0-0--0--0--0-0-0-4-|-(4)------------------|
|------------------------|----------------------|
|
|  Q    E  E +E  E E E      E E E  E  E   E E E
|------------------------|----------------------|
|---------/5-(5)-5-5-5---|--5s3-----------------|
|--0---------------------|------4s=2--0-----0-0-|
|--0---------------------|------------0--/5-0---|
|-------0----------------|----------------------|
|------------------------|----------------------|


        C/GG       C/G          C/G         C/EG
   E  E  E E +E  E E E   +E   E E S S  E  E  E E
|----------------------|-------------------------|
|--------1-0-(0)-0-1-0-|-(0)--0-1-0-0--0--0--1-0-|
|--------0-0-(0)-0-0-0-|-(0)--0-0-0-0--0--0--0-0-|
|-----0--2-0-(0)-0-2-0-|-(0)--0-2-0-0--0--0--2-0-|
|--0-----0-0-(0)-0-0-0-|-(0)----0-0-0--0--0----0-|
|----------------------|-------------------------|
|
| +Q     E E  E  E Q      E   E E E   +Q     E E
|----------0-----0-----|-----------------------0-|
|-------------0--------|-------------------------|
|-(0)---/4---------0---|--0-------0---(0)---/4---|
|----------------------|--0--/3-5-0---(0)--------|
|----------------------|----------0---(0)--------|
|----------------------|-------------------------|


                           D.S.S. al Dbl. Coda &&
                  C/G             C/G   G C
  +E  E E S S E E E E   +E  E E E  E  E E S S
|---------------------|------------------------||
|-(0)-0---0-0-0-0-1-0-|-(0)-0-0-0--1--1-0-5-5--||
|-(0)-0-0-0-0-0-0-0-0-|-(0)-0-0-0--0--0-0-5-5--||
|-(0)-0-0-0-0-0-0-2-0-|-(0)-0-0-0--2--2-0-5-5--||
|-(0)---0-0-0-0-0-0-0-|-(0)-0-0-0--0--0-0-5-5--||
|---------------------|------------------------||
|
|  E  E E E   E E Q      E  E E E +E  E Q
|-----0-3s2-----------|-----------------0------||
|---------------------|-----5-----------0------||
|--x----3s2---0---0---|-/4----0-0-(0)-0-0------||
|---------------5-----|------------------------||
|---------------------|------------------------||
|---------------------|------------------------||


                         Interlude
  G          C/G   C      C          Csus2add4C
   E  E  Q   E Q   S S    E  E  E  E  Q     E  E
|-(0)------------------||------------------------|
|-(0)-0------1-0---5-5-||-5--5--5--5--6-----6--5-|
|-(0)-0------0-0---5-5-||-5--5--5--5--7-----7--5-|
|-(0)-0--0---2-0---5-5-||-5--5--5--5--5-----5--5-|
|-(0)----0---0-0---5-5-||-5--5--5--5--5-----5--5-|
|----------------------||------------------------|
|
|  E  E +Q   E E E E      E  E  E  E  E  E  E  E
|-(0)------------------||---14-14-14-14s12-------|
|-(0)--------------0---||------------------12s10-|
|-(0)-0-(0)--0-0-0-0---||------------------------|
|-----0-(0)--0-0-0-----||------------------------|
|-----0-(0)------------||------------------------|
|----------------------||------------------------|


  Csus2add4          C                   Csus2aCd4
    E  E   E  E  +E  E E S S    E  E E E Q   E E
|----------------------------|-------------------|
|---6--6---6--6--(6)-5-5-5-5-|--5--5-5-5-6---6-5-|
|---7--7---7--7--(7)-5-5-5-5-|--5--5-5-5-7---7-5-|
|---5--5---5--5--(5)-5-5-5-5-|--5--5-5-5-5---5-5-|
|---5--5---5--5--(5)-5-5-5-5-|--5--5-5-5-5---5-5-|
|----------------------------|-------------------|
|
|                 ~~~~
|   E  E   E  E  +Q.     E     +E  E E E E E E E
|-----12---------------------|-----5-----5-----5-|
|-/12----/12-12-(12)-----5---|-(5)---4s5---4s5---|
|----------------------------|-------------------|
|----------------------------|-------------------|
|----------------------------|-------------------|
|----------------------------|-------------------|


                     Out-Chorus
  F/C          C G    G           N.C.
  Q   E E +Q   E E    +Q.          E +E  E   E   E
|----------------0-||-(0)--------------------5-------|
|-6---6-6-(6)--5-0-||-(0)----------------5-----------|
|-5---5-5-(5)--5-0-||-(0)---------/5-(5)-------------|
|-7---7-7-(7)--5-0-||-(0)---------/5-(5)---------0---|
|-5---5-5-(5)--5-0-||-(0)------------------------0---|
|------------------||--------------------------------|
|
| E E E E  E E E E     E   E  +H            +E   E
|------------------||-----12-(12)----------(12)------|
|-5-5-5-5--5s3-----||-12------------------------11s==|
|--------------4s2-||--------------------------------|
|------------------||--------------------------------|
|------------------||--------------------------------|
|------------------||--------------------------------|


  +E   E +E.   S   E    E  E  E    +E  E E S  S   E E   E   E
|--------------------------5----|-----------------------5-----|
|-----------------------5-------|-------------------5---------|
|------0-(0)---0S==5------------|------0---0-/5---5-----------|
|-(0)--0-(0)--------------------|------0-----/5---------------|
|-(0)-------------------------0-|--(0)---0------------------0-|
|-------------------------------|-----------------------------|
|
|                          ~~~~~~~~~~~~
|  E   E  E  E    +E    E  E  E    +H             Q     E   E
|-----12------------------------|-----------------------------|
|-12-----11s12---(12)\----------|---------------/12---/12-/12-|
|----------------------12-12-12-|-(12)------------------------|
|-------------------------------|-----------------------------|
|-------------------------------|-----------------------------|
|-------------------------------|-----------------------------|


                        G       Bb5G5    N.C.
   +E   E   Q    E E  E  E   +E  E  Q     E  E  E  E
|---------------------5--0-|-(0)----------------5-----|
|------------------5-----0-|-(0)-------------5--------|
|-------0--(0)--/5-------0-|-(0)-3--0----/5-----------|
|-------0--(0)-----------0-|-(0)-3--0--------------0--|
|--(0)------0------------0-|-(0)-3--0--------------0--|
|--------------------------|--------------------------|
|
|       ~~~~~~~
|  +E   E  +H         E  E    E  E  E  E  E  E  E  E
|--------------------14-14-|-14s12--------------------|
|-(12)---------------------|-------12s10--------------|
|------12-(12)-------------|-------------12-10-12-12\-|
|--------------------------|--------------------------|
|--------------------------|--------------------------|
|--------------------------|--------------------------|


      BbG5   N.C.           BbG5  N.C.
  +E  E Q     E E E E   +E  E Q    E E E E
|-----------------5---|----------------5---|
|---------------5-----|--------------5-----|
|-----3-0----/5-------|-----3-0---/5-------|
|-(0)-3-0-----------0-|-(0)-3-0----------0-|
|-(0)-3-0-----------0-|-(0)-3-0----------0-|
|---------------------|--------------------|
|
|  H       a  E E E E   +Q    E E  E E E E
|---------------------|--------------------|
|---------------------|--------------------|
|----------3s=5s0---0-|-(0)---0-0--4s0---0-|
|-----------------x---|----------------3---|
|---------------------|--------------------|
|---------------------|--------------------|


      BbG5  N.C.
  +E  E Q    E E E E   +Q.     E +E  E E E
|----------------5---|-----------------5----|
|--------------5-----|---------------5------|
|-----3-0---/5-------|--------/5-(5)--------|
|-(0)-3-0----------0-|-(0)----/5-(5)-----0--|
|-(0)-3-0----------0-|-(0)---------------0--|
|--------------------|----------------------|
|
| +E  E E E  E E E E   +Q   Q     H
|--------------------|----------------------|
|--------------------|----------------------|
|-(0)-0------4s0---0-|-(0)------------------|
|---------0------x-0-|-(0)------------------|
|-------0-0----------|----------------------|
|--------------------|----------------------|


  +E  E +E.    S E E E E   +E  E E S  S  E E E E
|--------------------5---|-------------------5---|
|------------------5-----|-----------------5-----|
|-----0-(0)----0S5-------|-----0---0-/5--5-------|
|-(0)-0-(0)--------------|-----0-----/5----------|
|-(0)------------------0-|-(0)---0-------------0-|
|------------------------|-----------------------|
|
|  Q     E   E   E E E E    E  E Q       E E e E
|------------------------|-----------------0-----|
|-----------/5---5s3-----|-----------------------|
|--------------------4s2-|--0----0------/4---0-0-|
|------------------------|-----3-----------------|
|------------------------|-----------------------|
|------------------------|-----------------------|


                      G          N.C.
  +E  E  Q     E E E  E   +Q.     E +E   E E E
|------------------5--0-|-(0)--------------5---|
|----------------5----0-|-(0)------------5-----|
|-----0-(0)---/5------0-|-(0)----/5-(5)--------|
|-----0-(0)-----------0-|-(0)----/5-(5)------0-|
|-(0)----0------------0-|-(0)----------------0-|
|-----------------------|----------------------|
|
| +Q     E  E  E E E  E   +Q   Q     E   E E E
|-----------------------|----------------------|
|----------------0------|----------------------|
|-(0)----0--0-/4---4\-0-|-(0)--------0-----0-0-|
|-----------------------|---------------/3-----|
|-----------------------|----------------------|
|-----------------------|----------------------|


      G5     N.C.            G5    N.C.
  +E  Q.      E E E  E   +E  Q.     E E E  E
|----------------------|-----------------------|
|---------------5------|--------------5--------|
|-----0------/5---5\---|-----0-----/5---5\-----|
|-(0)-0--------------0-|-(0)-0-------------0---|
|-(0)-0--------------0-|-(0)-0-------------0---|
|----------------------|-----------------------|
|
| +E  E  E E  E E Q       q     Q   E E E  S S
|----------0-----------|-----------------------|
|----------------------|-----------------------|
|-(0)-0--4------9------|--0-----0---4s2-0--0-0-|
|------------/9---9\---|-----------------------|
|----------------------|-----------------------|
|----------------------|-----------------------|


      G5     N.C.            G5     N.C.
  +E  Q.      E E E  E   +E  Q.      E E E  E
|----------------------|-----------------------|
|---------------5------|---------------5-------|
|-----0------/5---5\---|-----0------/5---5\----|
|-(0)-0--------------0-|-(0)-0--------------0--|
|-(0)-0--------------0-|-(0)-0--------------0--|
|----------------------|-----------------------|
|
|  E  E  E E  E E Q       Q     E E  E E E  E
|----------------------|-----------------------|
|--------5-------------|-----------------------|
|-----5----5--5s3-0----|--0-----0-0-/3-0----0--|
|-/5-------------------|-----------------3-----|
|----------------------|-----------------------|
|----------------------|-----------------------|


  +Q.       E +E E E E   +E E +E.  S E E E E
|------------------5---|-----------------5---|
|----------------5-----|---------------5-----|
|----------/5-(5)------|----0-(0)--0S5-------|
|-(0)------/5-(5)----0-|-(0)0-(0)------------|
|-(0)----------------0-|-(0)---------------0-|
|----------------------|---------------------|
|
| +E  E  E  E  E E E E    E E  E E   E E E E
|----------------------|---------------------|
|----------------------|-------------3-----3-|
|-(0)-0-/3--0--5s4-0-0-|--3s4--3s4-----3s4---|
|----------------------|---------------------|
|----------------------|---------------------|
|----------------------|---------------------|


                                                  G
  +E  E E S  S E E E E   +E  E  Q        E   E  E E
|------------------5---|------------------------5-0-|
|----------------5-----|---------------------5----0-|
|-----0---0-/5-5-------|-----0-(0)------/5--------0-|
|-----0-----/5---------|-----0-(0)----------------0-|
|-(0)---0------------0-|-(0)----0-----------------0-|
|----------------------|----------------------------|
|
| +Q    E E    E E Q     +Q.         E  +E   E  Q
|----------------------|--------------------12------|
|-(3)------------------|-----------/12-(12)----12---|
|-------0-0----4s2-0---|-(0)------------------------|
|----------------------|----------------------------|
|----------------------|----------------------------|
|----------------------|----------------------------|


           N.C.
  +Q.       E +E   E  E  E   +E  E +E. S   E  E  E  E    +E  E E S  S  E  E  E  E
|-(0)-----------------5----|---------------------5----|----------------------5----|
|-(0)--------------5-------|------------------5-------|-------------------5-------|
|-(0)------/5-(5)----------|-----0-(0)-0S==5----------|------0---0-/5--5----------|
|-(0)------/5-(5)--------0-|-(0)-0-(0)----------------|------0-----/5-------------|
|-(0)--------------------0-|-(0)--------------------0-|--(0)---0----------------0-|
|--------------------------|--------------------------|---------------------------|
|
|  E   Q.      E   E  E  E    H            E  E  E  E    +H            E  E  E  E
|--------------------------|--------------------------|---------------14-14-14-14-|
|-12----------12--12-12s10-|-------------/12s10-------|---------------------------|
|-----12-------------------|-12-----------------12-12-|-(12)----------------------|
|--------------------------|--------------------------|---------------------------|
|--------------------------|--------------------------|---------------------------|
|--------------------------|--------------------------|---------------------------|


                        G              N.C.
  +E  E  Q     E   E  E  E    +Q.       E +E  E E E
|---------------------5--0-|--(0)---------------5-----*|
|------------------5-----0-|--(0)-------------5-------*|
|-----0-(0)---/5---------0-|--(0)------/5-(5)---------*|
|-----0-(0)--------------0-|--(0)------/5-(5)-----0---*|
|-(0)----0---------------0-|--(0)-----------------0---*|
|--------------------------|--------------------------*|
|
|  E  E  E  E  E   E  E  E    +Q     Q     H
|-14s12--------------------|--------------------------*|
|-------12s10--------------|-------/12----------------*|
|-------------12-----12-12-|-(12)---------------------*|
|----------------/14-------|--------------------------*|
|--------------------------|--------------------------*|
|--------------------------|--------------------------*|


Duration Legend
---------------
W - whole; H - half; Q - quarter; E - 8th; S - 16th; T - 32nd; X - 64th; a - acciaccatura
+ - note tied to previous; . - note dotted; .. - note double dotted
Uncapitalized letters represent notes that are staccato (1/2 duration)
Irregular groupings are notated above the duration line
Duration letters will always appear directly above the note/fret number it represents the
duration for.  Duration letters with no fret number below them represent rests.  Multi-
bar rests are notated in the form Wxn, where n is the number of bars to rest for.  Low
melody durations appear below the staff

Tablature Legend
----------------
 h   - hammer-on
 p   - pull-off
 b   - bend
 pb  - pre-bend
 r   - bend release (if no number after the r, then release immediately)
 /\  - slide into or out of (from/to "nowhere")
 s   - legato slide
 S   - shift slide
  - natural harmonic
[n]  - artificial harmonic
n(n) - tapped harmonic
 ~   - vibrato
 tr  - trill
 T   - tap
 TP  - trem. picking
 PM  - palm muting
\n/  - tremolo bar dip; n = amount to dip
 \n  - tremolo bar down
 n/  - tremolo bar up
/n\  - tremolo bar inverted dip
 =   - hold bend; also acts as connecting device for hammers/pulls
 <>  - volume swell (louder/softer)
 x   - on rhythm slash represents muted slash
 o   - on rhythm slash represents single note slash

Misc Legend
-----------
 |  - bar
||  - double bar
||o - repeat start
o|| - repeat end
*|  - double bar (ending)
 :  - bar (freetime)
 $  - Segno
 &  - Coda
Tempo markers -  = BPM(8/16=s8/s16), where s8 = swing 8ths, s16 = swing 16ths

            
            
Suggest correction
Creating personal tab
Creating personal tab
You can edit any tab online and save it as your Personal.

You can edit, replace or remove any tab part or add personal notes – all changes will be seen only by you.

Personal tabs can be accessed anytime from any device, even offline.
Learn more »
Give kudos to tab author, rate the tab!
1 2 3 4 5
comments
print report bad tab
guest
You may want to rate the tab now too:
select rating
Wanna post a correction for this tab? Suggest correction