Oops, an error
Loading. Please wait.

Honky Tonk Woman Tab

version 1
version 1

Whole song

Interactive

258,825 views 417 this week
6 commentsread comments
1 2 3 4 5
x 19
add to favorites
launch autoscroll
font size
0
reset
how to read this tab
guitar tuner
Autoscroll
slow
fast
+/-
esc
set tempo
stop
Honky Tonk Woman - Rolling Stones

G-tuning


 [Intro]

e|-----------------------------------------------------------|
B|-----------------------------------------------------------|
G|--0------0---0---0------0---0---0--------------------------|
D|--0------0---0---0------0---0---0--------------------------|
G|-----------------------------------------------------------|
E|-----------------------------------------------------------|

e|---0-------0---0---0---0------0-----0---0----0---0---0---0-|
B|-----------------------------------------------------------|
G|---2(4)----2---0---2---0------2(4)--2---0--------0---2---0-|
D|---------------------------------------------2-------------|
G|-----------------------------------------------------------|
E|-----------------------------------------------------------|


[Verse]

e|-----------------------------------------------------------|
B|----------------------------------------------6---6(p.o)5--|
G|--0------0---0------------------0------5-------------------|
D|--0------0---0------0---(s)4----0------5------5---5--------|
G|---------------------------------------5------5---5--------|
E|-----------------------------------------------------------|

e|--5----(s)3(p.o)0---------0-------0-------0----------------|
B|--------------------------------------3--------------------|
G|--0-----------------------3(4)----0---3---0----------------|
D|--------------------------------------3--------------------|
G|-----------------------------------------------------------|
E|-----------------------------------------------------------|

e|-----------------------------------------------------------|
B|--2------3---2---(s)7------8---8(p.o)7---------------------|
G|--2------2---2---(s)7------7---7---------------------------|
D|--2------2---2---(s)7------7---7---------------------------|
G|-----------------------------------------------------------|
E|-----------------------------------------------------------|

e|-----------------------------------------------------------|
B|-----------------------------------------------------------|
G|--------------0--------------------------------------------|
D|-----------------------------------------------------------|
G|--0---(s)4--------4-----(s)2(p.o)0-------------------------|
E|-----------------------------------------------------------|

e|-----------------------------------------------------------|
B|----------------------------------------------6---6(p.o)5--|
G|--0------0---0-----------------0----------5---5---5--------|
D|--0------0---0-----------------0----------5----------------|
G|-------------------0---(s)4-----------5-------5---5--------|
E|-----------------------------------------------------------|


e|--5----(s)3(p.o)0----0-----5-------------------------------|
B|---------------------------3-------------------------------|
G|--0------------------3-----0-------------------0-----------|
D|-----------------------------------------------0-----------|
G|------------------------------------0----(s)4--------------|
E|-----------------------------------------------------------|

e|-----------------------------------------------------------|
B|--------------------------------7(h)8----------------------|
G|-(s)7---------------(flag)12----7--------------------------|
D|-(s)7------(flag)12-------------7(h)9----------------------|
G|-(s)7---------------------------------------------0--------|
E|-----------------------------------------------------------|


 [Pre-chorus]

e|-----------------------------------------------------------|
B|------1-------0----------1----------0--------1-------------|
G|------0-------0----------0----------0--------0-------------|
D|------2-------0----------2----------0--------2-------------|
G|--0--------0--------0----------0---------0----------0------|
E|-----------------------------------------------------------|

 
[Chorus]

e|-----------------------------------------------------------|
B|--0----------1----------0--------------1-------------------|
G|--0----------0----------0--------------0-------------------|
D|--0----------2----------0--------------2-------------------|
G|--------0----------0------------0--------------0-----------|
E|-----------------------------------------------------------|

e|-----------------------------------------------------------|
B|--3-----------3-----------3-------------3------------------|
G|--2-----------2-----------2-------------2------------------|
D|--------0------------0-----------0--------------0----------|
G|-----------------------------------------------------------|
E|-----------------------------------------------------------|

e|-----------------------------------------------------------|
B|--12----13----12----13----12----13----12----13-------------|
G|--12----12----12----12----12----12----12----12-------------|
D|--12----14----12----14----12----14----12----14-------------|
G|-----------------------------------------------------------|
E|-----------------------------------------------------------|

e|-----------------------------------------------------------|
B|--0----------1----------0--------------1-------------------|
G|--0----------0----------0--------------0-------------------|
D|--0----------2----------0--------------2-------------------|
G|--------0----------0------------0--------------0-----------|
E|-----------------------------------------------------------|

e|-----------------------------------------------------------|
B|--3-----------3-----------3-------------3------------------|
G|--2-----------2-----------2-------------2------------------|
D|--------0------------0-----------0--------------0----------|
G|-----------------------------------------------------------|
E|-----------------------------------------------------------|

e|--0-----0--------0----0-----0-----0----0----0-----0------0-|
B|-----------------------------------------------------------|
G|--2(4)--2(4)-----0----------0-----2----2----0------------0-|
D|----------------------2---------------------------2--------|
G|-----------------------------------------------------------|
E|-----------------------------------------------------------|



************************************

| (n)  Ghost note
| (h)  Hammer
| (p.o)Pull Off

************************************
Suggest correction
comments
print report bad tab
6 comments total. Showing first comments.
0 reply
zaccy 201 Jan 04, 2005 07:00 PM

nice tab, took me a while to find coz the song name is honky tonk women with an 'e'. lucky find, excellent intro

-1 reply
Bradaharp 10 Nov 04, 2006 12:56 PM

mmm

0 reply
\,.robbie.,/ 82 Jan 03, 2007 09:53 AM

if you listen close there is a lot more solo in the instramental verse for guitar

guest
You may want to rate the tab now too:
select rating
Wanna post a correction for this tab? Suggest correction