Oops, an error
Loading. Please wait.

Hot Stuff tab

11,037 views 30 this week
2 commentsread comments
1 2 3 4 5
x 27
add to favorites
×
Save as Personal and add changes to this tab that will be seen only by you. Learn more ›
×
You can save this tab as Personal to edit and correct it or add notes. All changes will be seen only by you. Learn more »
launch autoscroll
font size
0
reset
how to read this tab
guitar tuner
edit
Autoscroll
slow
fast
+/-
esc
set tempo
stop
SONG:   HOT STUFF
ARTIST: ROLLING STONES
ALBUM:  BLACK AND BLUE
TAB BY: DON CZARSKI
E-MAIL: guitarzan7@hotmail.com


                          HOT STUFF
                       ROLLING  STONES

    LISTEN TO THE RECORD TO GET THE FEEL OF THE SONG AND YOU WILL
    UNDERSTAND WHAT I HAVE DONE. I HAVE REVISED THIS ON 5-28-13.


INTRO:

GUITAR 1:
            (X = MUTE STRINGS ON 12th FRET)

       E -12-----12--x--x--x--x--x--x--12------|
       B -12h13--12--x--x--x--x--x--x--12h13---|
       G -12-----12--x--x--x--x--x--x--12------|
       D --------------------------------------|
       A --------------------------------------|
       E --------------------------------------|

THEN: (BASS RUN)
      LOW E STRING   ----7--6--5--3---

DURING THE VERSES ONE OF THE FOLLOWING 3 RIFFS ARE PLAYED.

GUITAR 2:

RIFF 1:
      E ---------------------------|------|
      B ---------------------------|------|
      G ---------------------------|------|
      D ---------5-----------------|------|
      A --5h6h7-----5-7---5-7------|------|
      E ---------------------------|------|

RIFF 2:
      E ---------------------------|------|
      B ---------------------------|------|
      G ---------------------------|------|
      D ---------5-----------------|------|
      A --5h6h7-----5-7---5h6h7----|------|
      E ---------------------------|------|

RIFF 3:
      E ----------------------------|------|
      B ----------------------------|------|
      G ----------------------------|------|
      D ---------5--------7-7-5-----|------|
      A --5h6h7-----5-7-----------7-|------|
      E ----------------------------|------|

VERSE:
       Hot stuff, yeah
       Hot stuff
       Hot stuff, yeah
       Hot stuff
       Can't get enough
       Hot stuff, yeah
       Hot stuff
       Hot stuff

BREAK:
                   Am    C
       Can't get enough
             Em                     C
       The music is mighty, mighty fine

      E -------------|
      B -------------|
      G ---12/14br---|
      D -------------|
      A -------------|
      E -------------|

VERSE:
       Hot stuff
       Hot stuff
       Can't get enough
       Hot stuff
       Can't get enough
       Hot stuff
       Can't get enough

BREAK:
                   Am   C   Em   C   Am   C
       Can't get enough
             Em                     C
       The music is mighty, mighty fine

INSTRUMENTAL:

SOLO OVER THIS (same as INTRO but 2 frets up)

GUITAR 1:

          * (X = MUTE STRINGS ON 14th FRET)
       E -14-----14--x--x--x--x--x--x----14-----|
       B -14h15--14--x--x--x--x--x--x----14h15--|
       G -14-----14--x--x--x--x--x--x----14-----|
       D ---------------------------------------|
       A ---------------------------------------|
       E ---------------------------------------|

GUITAR 2:

*RIFF 1:
      E ---------------------------|------|
      B ---------------------------|------|
      G ---------------------------|------|
      D ---------7-----------------|------|
      A --7h8h9-----7-9---7-9------|------|
      E ---------------------------|------|

*RIFF 2:
      E ---------------------------|------|
      B ---------------------------|------|
      G ---------------------------|------|
      D ---------7-----------------|------|
      A --7h8h9-----7-9---7h8h9----|------|
      E ---------------------------|------|

*RIFF 3:
      E ----------------------------|------|
      B ----------------------------|------|
      G ----------------------------|------|
      D ---------7--------9-9--7----|------|
      A --7h8h9-----7-9-----------9-|------|
      E ----------------------------|------|


*** NOW BACK TO ORIGINAL INTRO AND RIFFS***

VERSE:
       Hot stuff
       I can't get enough
       Hot stuff
       Play it rough, yeah
       I can't get enough
BREAK:
       'Cause music is what I want
       To keep my body always moving, yeah

VERSE:
       Shake it up
       Hot stuff

BREAK:
       Everyday I need another dose
       I can't stand it when the music stop
       Hot stuff
OUTRO:
       Everybody on the dance floor
       You know what I'm talking about
       Music make you forget all your trouble
       Make you kiss and tell the whole wide world
       So what
       Hot stuff
       Hot stuff
       Shake it up
       Shake it up

       I wanna tell all my friends in London
       There ain't nothing wrong with you
       But you better shape up, yeah
       Shake it up
       You're hot stuff
       All the people in New York City
       I know you are goin' broke
       But I know you're tough, yeah
       You're hot stuff
       Hot stuff
       To everybody in Jamaica
       That is workin' in the sun
       You're hot
       You're hot stuff
       Shake it up

       Shake it up
       You're hot stuff
       Hot stuff
       Play it rough
       Hot stuff
       Shake it up
       Hot stuff

            
            
Suggest correction
Creating personal tab
Creating personal tab
You can edit any tab online and save it as your Personal.

You can edit, replace or remove any tab part or add personal notes – all changes will be seen only by you.

Personal tabs can be accessed anytime from any device, even offline.
Learn more »
comments
print report bad tab
2 comments total.
+1 reply
DON CZARSKI [tm] 28,135 May 29, 2013 04:39 AM

I updated the song on May 28, 2013 ... Sounds better now...at least to me it does...

+1 reply
Shadoobee 10 May 29, 2013 06:07 AM

This is a very good tab now that you updated it. I know that with this tab I can now do an accurate and acceptable version of this song. Again, thanks for placing it here and updating it.

guest
You may want to rate the tab now too:
select rating
Wanna post a correction for this tab? Suggest correction