Oops, an error
Loading. Please wait.

Its All Over Now tab

version 1
version 1

Whole song

Interactive

34,943 views 33 this week
no commentswrite comment
1 2 3 4 5
x 4
add to favorites
×
Save as Personal and add changes to this tab that will be seen only by you. Learn more ›
×
You can save this tab as Personal to edit and correct it or add notes. All changes will be seen only by you. Learn more »
launch autoscroll
font size
0
reset
how to read this tab
guitar tuner
backing track
0:00
0:00
edit
Autoscroll
slow
fast
+/-
esc
set tempo
stop
----------------------------------------------------------------------------
                        It's All Over Now - The Rolling Stones
----------------------------------------------------------------------------
Tabbed by:thebiglebowski
Email:jbskibud@wi.rr.com

Tuning:EADGBE

Intro:

Guitar 1
e|-----3---------1----------0----------2-----------|
B|-------3---------1----------1----------3---------|
G|-----------------------------------2-----2-------|
D|------------------------2-----2--0---------------|
A|---2-----2---3-----3--3--------------------------|
E|--3--------1-------------------------------------|

Guitar 2            F              D
e|------------------1-------------5----------------|
B|------------------1-------------3----------------|
G|------------------2-------------3----------------|
D|--------------5---3-------------3----------------|
A|---------5h7------3---3h5--7----5----------------|
E|------------------1-------------5----------------|

Play twice

Verse:

Guitar 1
e|------3------------3------------3------------3----------------------------|
B|--------3---3--------3---3--------3---3--------3---3----------------------|
G|--------------------------------------------------------------------------|
D|--------------------------------------------------------------------------|
A|----2-----2------2-----2------2-----2------2------2-----------------------|
E|--3------------3------------3------------3--------------------------------|

Guitar 2
    *   *   *   *   *         *   *   *   *   *
e|--3---3---3---3---3---------3---3---3---3---3-----------------------------|
B|--3---3---3---3---3---------3---3---3---3---3-----------------------------|
G|--4---4---4---4---4---------4---4---4---4---4-----------------------------|
D|-------------------------5-------------------------5----------------------|
A|--------------------5/7-----------------------5/7-------------------------|
E|--------------------------------------------------------------------------|

Repeat until chorus

Chorus:

Guitar 1
e|------2-----------2-----------0-----------0-----------3-----------3-------|
B|--------3---3-------3---3-------1---1-------1---1-------3---3-------3---3-|
G|----2-----2-----2-----2---------------------------------------------------|
D|--0-----------0-------------2-----2-----2-----2---------------------------|
A|--------------------------3-----------3-------------2-----2-----2-----2---|
E|--------------------------------------------------3-----------3-----------|

Guitar 2                                            *   *   *   *   *
e|--------------------------------------------------3---3---3---3---3--------|
B|--------------------------------------------------3---3---3---3---3--------|
G|--7-----------------7-7-5---------------------5-5-4---4---4---4---4--------|
D|--7-----------------7-7-5---------------------5-5------------------------5-|
A|--5-----------------5-5-3---------------------3-3-------------------5/7----|
E|---------------------------------------------------------------------------|

Guitar 1
e|------3-----------3-------------------|
B|--------3---3-------3-----3-----------|
G|--------------------------------------|
D|--------------------------------------|
A|----2-----2-----2-----2---------------|
E|--3-----------3---------3-------------|

Guitar 2
    *   *   *   *   *
e|--3---3---3---3---3-------------------|
B|--3---3---3---3---3-------------------|
G|--4---4---4---4---4-------------------|
D|-------------------------5------------|
A|--------------------5/7---------------|
E|--------------------------------------|

Play Twice

Solo:
Guitar 1:Play D and G throughout the solo

Guitar 2
e|--------------------------------------------------------------------------|
B|--------------------------------------------------------------------------|
G|------------------------------------------12b-----------------------------|
D|--10/12b-8--8--8--8--8-10/12b-8--8--8-10/12---12-10------8--8--8--10/12b--|
A|---------10-10-10-10----------10-10---------------13-10--10-10-10---------|
E|--------------------------------------------------------------------------|

That’s obviously not the whole thing but its just a bunch of pulloffs and bends in that 
sorry I couldn’t really get the whole thing

Outro:
Same as chorus, just repeat and fade

Song Order:
Intro
Verse
Chorus
Verse
Chorus
Solo
Verse
Chorus
Outro

*-Palm Muting
h-Hammer On

            
            
Suggest correction
Creating personal tab
Creating personal tab
You can edit any tab online and save it as your Personal.

You can edit, replace or remove any tab part or add personal notes – all changes will be seen only by you.

Personal tabs can be accessed anytime from any device, even offline.
Learn more »
comments
print report bad tab
guest
You may want to rate the tab now too:
select rating
Wanna post a correction for this tab? Suggest correction