Oops, an error
Loading. Please wait.

Its All Over Now bass

version 3
version 3

Whole song

Interactive

512 views 3 this week
1 commentread comment
1 2 3 4 5
1 last vote to show rating
add to favorites
×
Save as Personal and add changes to this tab that will be seen only by you. Learn more ›
×
You can save this tab as Personal to edit and correct it or add notes. All changes will be seen only by you. Learn more »
launch autoscroll
font size
0
reset
guitar tuner
backing track
0:00
0:00
edit
Autoscroll
slow
fast
+/-
esc
set tempo
stop
Author
It’s All Over Now
Written by Womack & Womack this became the first number 1 single for 
The Rolling Stones in 1964. Bass performance Bill Wyman. 
Tab by bass50611. This is how I played this song with my band many
Many moons ago, and at the time, played on a fretless.
Hope you like my version.  Comments bass254@btinternet.com 

Intro:
G|----------------------------------------------------|
D|----------------------------------------------------|
A|---------------3------5--------------------3------5-|
E|-3------1--------------------3------1---------------|

Verse 1:                        (Play This x4)
G|----------------------------------------|
D|-----------------5--------------------5-|
A|-----0-2--5-5--7----------0-2--5-5--7---|
E|-3-3------------------3-3---------------|

Chorus:  (Play Chorus x2)
G|-------------------7------------------5---------------------|
D|-----4-4--7-7--7/9------2-2--5-5--5/7---------------------5-|
A|-5-5----------------3-3---------------------2-2--5-5--5/7---|
E|----------------------------------------3-3-----------------|

G|---------------------|
D|-------------------5-|
A|-----2-2--5-5--5/7---|
E|-3-3-----------------|

Verse 2:                        (Play This x4)
G|----------------------------------------|
D|-----------------5--------------------5-|
A|-----0-2--5-5--7----------0-2--5-5--7---|
E|-3-3------------------3-3---------------|

Chorus:  (Play Chorus x2)
G|-------------------7------------------5---------------------|
D|-----4-4--7-7--7/9------2-2--5-5--5/7---------------------5-|
A|-5-5----------------3-3---------------------2-2--5-5--5/7---|
E|----------------------------------------3-3-----------------|

G|---------------------|
D|-------------------5-|
A|-----2-2--5-5--5/7---|
E|-3-3-----------------|

Bridge:                         (Play This x2)
G|--------------------------------------|
D|--------------------------------------|
A|-----2-2--5-5--7-7------2-2--5-5--7-7-|
E|-3-3----------------3-3---------------|

G|---------------------------------------|
D|-----2-2--5-5--7-7-------2-2--5-5--7-7-|
A|-3-3-----------------3-3---------------|
E|---------------------------------------|


G|--------------------------------------|
D|--------------------------------------|
A|-----2-2--5-5--7-7------2-2--5-5--7-7-|
E|-3-3----------------3-3---------------|

G|--------------------------------------|
D|-----4-4--7-7--9-9------2-2--5-5--7-7-|
A|-5-5----------------3-3---------------|
E|--------------------------------------|

G|--------------------------------------|
D|--------------------------------------|
A|-----2-2--5-5--7-7------2-2--5-5--7-7-|
E|-3-3----------------3-3---------------|

Verse 3:                          (Play This x4)
G|----------------------------------------|
D|-----------------5--------------------5-|
A|-----0-2--5-5--7----------0-2--5-5--7---|
E|-3-3------------------3-3---------------|

Chorus:  (Play Chorus x3)
G|-------------------7------------------5---------------------|
D|-----4-4--7-7--7/9------2-2--5-5--5/7---------------------5-|
A|-5-5----------------3-3---------------------2-2--5-5--5/7---|
E|----------------------------------------3-3-----------------|

G|---------------------|
D|-------------------5-|
A|-----2-2--5-5--5/7---|
E|-3-3-----------------|

Outro:  (Repeat To Fade/End)
G|---------------------------------------------------------|
D|-----4-4--7-7--9-9------2-2--5-5--7-7--------------------|
A|-5-5----------------3-3--------------------2-2--5-5--7-7-|
E|---------------------------------------3-3---------------|

G|-------------------|
D|-------------------|
A|-----2-2--5-5--7-7-|
E|-3-3---------------|

Well, baby used to stay out, all night long
She made me cry, she done me wrong
She hurt my eyes open, that's no lie
Tables turn and now her turn to cry

Because I used to love her, but it's all over now
Because I used to love her, but it's all over now

Well, she used to run around, with every man in town
Spent all my money, playing her high-class game
She put me out, it was a pity how I cried
The tables turn and now her turn to cry

Because I used to love her, but it's all over now
Because I used to love her, but it's all over now

Yeah

(Guitar Solo)

Well, I used to wake the mornin’, get my breakfast in bed
When I'd gotten worried, she'd ease my achin’ head
But, now she's here and there, with every man in town
Still tryin’ to take me for that same old clown

Because I used to love her, but it's all over now
Because I used to love her, but it's all over now
Because I used to love her, but it's all over now, yeah
Suggest correction
Creating personal tab
Creating personal tab
You can edit any tab online and save it as your Personal.

You can edit, replace or remove any tab part or add personal notes – all changes will be seen only by you.

Personal tabs can be accessed anytime from any device, even offline.
Learn more »
Give kudos to tab author, rate the tab!
1 2 3 4 5
comments
print report bad tab
1 comment total.
0 reply
johndala 479 Mar 09, 2017 08:50 AM

Great tab! I've only just seen it. Saved me having to work it out. Thanks for sharing :)

guest
You may want to rate the tab now too:
select rating
Wanna post a correction for this tab? Suggest correction