Oops, an error
Loading. Please wait.

Jumpin Jack Flash Chords

version 2
version 2

Whole song

  • Some improvements on other submitted versions.
  • Complete chords for the whole song / player-friend... Show more
84,599 views 42 this week
7 commentsread comments
1 2 3 4 5
x 7
add to favorites
×
Save as Personal and add changes to this tab that will be seen only by you. Learn more ›
×
You can save this tab as Personal to edit and correct it or add notes. All changes will be seen only by you. Learn more »
save as personal
new!
launch autoscroll
font size
0
reset
transpose
0
reset
simplify chords
display chords
guitar tuner
backing track
0:00
0:00
Autoscroll
slow
fast
+/-
esc
set tempo
stop
Strumming
There is no strumming pattern for this song yet. and get +5 IQ
The chords to Jumpin' Jack Flash (as I hear it) are B, D, A, and E.
The opening riff (also, the middle section) is just B-E-D repeated (3 times
for the intro, 4 for in the middle) followed by B strummed a few times.

During the verses, the [riff] is the simple
e|-----------------------------------|
B|*---------------------------------*|
G|-----8--8--------------------------|
D|-----9--9--------7-----7-------7---|
A|*----9--9----7-9---7-9-----7-9----*|
E|-----7--7--------------------------|

[Chorus]
  B        D     A         E
  But it's al----right     now,
                 B
  in fact it's a gas....
  B        D     A
  But it's al----right
  E                          B
  Jumpin' Jack Flash, it's a gas gas gas!

That's the chord progression.  If anyone knows the counter-melody played
during the chorus, please post it.

==============================================================================
The opening section to Brown Sugar is

      C   G     C    F
e|-------------------------|
B|*---13--12----5-5--6-6--*|
G|----12--12----5-5--5-5---|
D|----14--12----5-5--7-7---| x4
A|*-----------------------*|
E|-------------------------|

     Eb    Eb11   Eb    C    C11  C     Ab     Bb   F        C
e|-------------------|---------------|---------------------------|
B|*--8---8-9---9--8--|--5--5-6--6-5--|--1--2-1-3-4--6--6-6-6-5--*|
G|---8---8-10--10-8--|--5--5-7--7-5--|--1--3-1-3-5--5--5-5-5-5---|
D|---8---8-8---9--8--|--5--5-5--5-5--|--1--1-1-3-3--7--7-7-7-5---| x2
A|*------------------|---------------|--------------------------*|
E|-------------------|---------------|---------------------------|
Suggest correction
comments
print report bad tab
7 comments total. Showing first comments.
0 reply
Matze 10 Jul 20, 2005 08:00 PM

spast

+1 reply
dEipHoBoS 155 Jun 18, 2007 12:02 PM

aint it a#?
@matze stfu

0 reply
dEipHoBoS 155 Jun 18, 2007 12:04 PM

sry it aint.

guest
Wanna post a correction for this tab? Suggest correction