Oops, an error
Loading. Please wait.

Jumpin Jack Flash Bass Tab

version 4
version 4
23,857 views 63 this week
1 commentread comment
1 2 3 4 5
worth learning
x 3
add to favorites
launch autoscroll
font size
0
reset
guitar tuner
Tab Pro tools
  • play this tab
  • loop segment
  • change instrument
  • show fretboard
  • metronome
×
Best way to learn
"Jumpin Jack Flash"
Autoscroll
slow
fast
+/-
esc
set tempo
stop
Contributor
Hey there! OK, I've read the other tabs for this song, and I just don't think it's 
So here goes!


intro: (bass is tacet until 0:05-0:06)

*Refer to this after playing the second chorus*.


G|-------------------------------------------------------------------------|
D|-/14--12--11--9--9--9------/14--12--11---9---9--9------------------------|
A|-------------------------------------------------------------------------|
E|-------------------------------------------------------------------------|

After the playing this twice, Wyman plucks away on that B for a little bit, then it's 
to the verses! I'm hearing Wyman play mostly root notes, again on that B, this time on the 
string. Try and accentuate the first
two notes of the measure in relation to what the drummer is playing.

verses:
G|-------------------------------------------------------------------------|
D|-------------------------------------------------------------------------|
A|-------------------------------------------------------------------------|
E|-7-7--7--7--7--7--7--7--7--7---------------------------------------------|


Sometimes Wyman will throw in a little fill:

G|-------------------------------------------------------------------------|
D|-------------------------------------------------------------------------|
A|-------------------------7-5-4-------------------------------------------|
E|--7--7--7--7--7--7--7--7--------7----------------------------------------|


Chorus! (Make sure not to play this too fast - it's not a race!)


G|-------------------------------------------------------------------------|
D|-------------------------------------------------------------------------|
A|-5--5--4----------4-5-7--7--5--------------------------------------------|
E|----------5--5--5--------------7--7---------(2x)-------------------------|

After playing this twice, Wyman plucks that "B" on the D string again, and then it's 
to the verse, followed by another chorus. After the second chorus, refer to the intro, 
that single note you hear is "B" so pluck away at that, until the next verse/chorus.

For the "Jumping Jack Flash...it's a gas" part, refer to the intro again for a couple of 
and then just keep plucking away on B, just like in the verse section until the song 
out.
comments
We did not receive enough feedback on this tab! Please rate:
print report bad tab
1 2 3 4 5
1 comment total.
0 reply
bass50611 wrote on February 6 2015, 09:59 am

Loads of notes and riffs missing plus Wyman isn't playing the bass. It's Keith Richards

I want to post or [tab]
guest
You may want to rate the tab now too:
select rating
Please do not post tabs as comments. Select "correction" instead!