Oops, an error
Loading. Please wait.
We have an official Jumpin Jack Flash tab made by UG professional guitarists. Check out the tab »
×
15,094 views 24 this week
no commentswrite comment
1 2 3 4 5
x 9
add to favorites
×
Save as Personal and add changes to this tab that will be seen only by you. Learn more ›
×
You can save this tab as Personal to edit and correct it or add notes. All changes will be seen only by you. Learn more »
launch autoscroll
font size
0
reset
guitar tuner
backing track
0:00
0:00
edit
Autoscroll
slow
fast
+/-
esc
set tempo
stop
Author
Rolling Stones
Jumpin' Jack Flash


[Intro]
G|--------|--------|--------|-/8---6-5---|
D|--------|--------|--------|----------8-|
A|--------|--------|--------|------------|
E|--------|--------|--------|------------|

G|--------|-/8--6-5--|--------|--------|
D|-/8-/8--|--------8-|-/8-/8--|-/8-/8--|
A|--------|----------|--------|--------|
E|--------|----------|--------|--------|


[Verse]
G|---------|  |------------|----------------| Repeat last two until Chorus.
D|-/8---6--|  |-8-8------6-|----6------6----| To my ear, its actually played
A|-------6-|  |-------6-8--|-6-8----6-8-----| more simply with some variations
E|---------|  |------------|----------------| but this sounds punchy!


[Chorus]
G--------------|-------------|-------------|--------------|
D--------------|-------------|-------------|--------------|
A--4--4--4-----|---------4-5-|-6--6--6--5-4|--------------|
E----------6-5-|-4--4--4-----|-------------|-6--6--6--4-6-|

G--------------|-------------|-------------|--------------|
D--------------|-------------|----------6-7|-8------/8----|
A--4--4--4-----|---------4-5-|-6--6--6-----|--------------|
E----------6-5-|-4--4--4-----|-------------|--------------|

G|--------|--------|
D|-/8-/8--|-/8-/8--|
A|--------|--------|
E|--------|--------|


[Verse]

[Chorus]


[Bridge 1]
G|---------------|--8-------6---5-|
D|-8---8-8--8-8-8|----------------|  x3
A|---------------|----------------|
E|---------------|----------------|


[Bridge 2]
G|---------------|
D|-8---8-8--8-8-8| x5
A|---------------|
E|---------------|


[Verse]

[Chorus]


[Outro]
G|--------------|--------------|
D|--------------|--------------|
A|--------------|--6------4--3-|
E|-6--6-6--6-6-6|--------------|   repeat with variations and fade

I started with DaleBass65's tab (thank you Dale) and changed it around a bit to suit
what I think I hear (Grr! Album Version) and how I like to play it - Spacing on the tab is
supposed to give some idea of note spacing but listen to the track for timing. It's not 
100% accurate but just another version that works for me. Hope it helps.
Andy.

************************************

| /  Slide up

************************************

            
            
Suggest correction
Creating personal tab
Creating personal tab
You can edit any tab online and save it as your Personal.

You can edit, replace or remove any tab part or add personal notes – all changes will be seen only by you.

Personal tabs can be accessed anytime from any device, even offline.
Learn more »
comments
print report bad tab
guest
You may want to rate the tab now too:
select rating
Wanna post a correction for this tab? Suggest correction