Oops, an error
Loading. Please wait.

Lady Jane Tab

version 2
version 2

Whole song

30,334 views 63 this week
4 commentsread comments
1 2 3 4 5
excellent!
x 15
add to favorites
launch autoscroll
font size
0
reset
how to read this tab
guitar tuner
Tab Pro tools
  • play this tab
  • loop segment
  • change instrument
  • show fretboard
  • metronome
×
Best way to learn
"Lady Jane"
Autoscroll
slow
fast
+/-
esc
set tempo
stop
Contributor
Song: Lady Jane
Artist: Rolling Stones
Album: Aftermath (1966)

The verse and bridge on guitar one sound fine to me, but I'm not too sure about the
on guitar two, so I checked in a friends tab book and wrote down what was in there. It
a bit off, but I'd rather have something in for that part than nothing at all. If you 
any suggestions about what it might be, email me or leave a comment.

~~~~~~~~~~~~~~~~~~~~~~~~~~~~~~~~~~GTR 1~~~~~~~~~~~~~~~~~~~~~~~~~~~~~~~

INTRO:

Acoustic Gtr. 1
e----------0--------------|
B----10---------10--------|
G-11----11---11----11-----|
D----------------------0--|
A-------------------------|
E------repeat-------------|

VERSE:

The picking changes each time, but here's a basic run down

D
e-----------2----------------|
B------3------3--------------|
G----2-0-2------2------------|
D--0--------------0----------|
A----------------------------|
E---------X2-----------------|
My sweet Lady

C
e----------0-------------------0-------|
B-----1------1------------0------1-----|
G-------0------0--------2---2------2---|
D---2------------2----3--------------1-|
A-3------------------------------------|
E--------------------------------------|
Jane, when I see you a-

G
e---------3-------------------|
B-----0-----0-----------------|
G---0---0-----0---------------|
D---------------0-------------|
A-----------------------------|
E-3---------------------------|
gain

This is repeated throughout all verses, I think :s

BRIDGE

E7/Gsharp
e---------4-------------------|
B-----3-----3----3------------|
G-------4---------------------|
D---0-------------------------|
A-----------------------------|
E-4------------4--------------|
Just hear this

Am
e----------------------------|
B-----1----------------------|
G----------------------------|
D---2-----2---2--------------|
A-0-----3---0----------------|
E----------------------------|
Plea, my love

D7/Fsharp
e-------2---------------------|
B-----1---1---1---------------|
G-----------2-----------------|
D---0-------------------------|
A-----------------------------|
E-2---------------------------|
On bended

G
e---------3-------------------|
B-------0---------------------|
G-----0-----0-----------------|
D---0-------------------------|
A-------------0-2-------------|
E-3---------------------------|
Knees, my love

C
e-----------------------------|
B----------1------------------|
G-----0------0----------------|
D---2---2---------------------|
A-3-------------3-2-----------|
E-----------------------------|
I pledge my

D7/Fsharp
e--------2--------------------|
B---1-------------1-----------|
G---------------2-------------|
D-------------0---------------|
A-0---------------------------|
E-----2-----2-----------------|
Self to Lady

Am
e-~---------------------------|
B-1---------------------------|
G-2~--------------------------|
D-2~--------------------------|
A-0~--------------------------|
E-----------------------------|
Jane

~~~~~~~~~~~~~~~~~~~~~~~~~~~~~~GUITAR 2~~~~~~~~~~~~~~~~~~~~~~~~~~~~~~~~~~~

INTRO & VERSE

Acoustic Gtr. 2 (1st string tuned to D)
d--0--0--0-0-0-0-0----0-0-0-0-0---0-|
B--10-10-8-7-3/5-5----8-8-7-5-1/3-3-|
G-----------------------------------|
D-----------------------------------|
A-----------------------------------|
E----REPEATED THROUGHOUT------------|


BRIDGE:

This is the bit that sounds a bit iffy to me.

d-0--0-0--0--0--0-------------------|
B-15-9-15-10-12-13------------------|
G-----------------------------------|
D-----------------------------------|
A-----------------------------------|
E-----------------------------------|
Just hear this plea, my love

d-0--0-0--0--0--0-------------------|
B-13-7-13-13-12-12------------------|
G-----------------------------------|
D-----------------------------------|
A-----------------------------------|
E-----------------------------------|
On bended knees, my love

d-0-0-0-0-0-0-0---------------------|
B-3-8-3-8-8-7-7---------------------|
G-----------------------------------|
D-----------------------------------|
A-----------------------------------|
E-----------------------------------|
I pledge myself to Lady Jane..

d-0---0-0---------------------------|
B-5-3-1-3---------------------------|
G-----------------------------------|
D-----------------------------------|
A-----------------------------------|
E-----------------------------------|

There's a third guitar at one point, but I'm afraid I can't quite make it out. Is this
okay?
Let me know x
comments
print report bad tab
4 comments total. Showing first comments.
0 reply
tomasio wrote on March 15 2010, 11:20 am

Nicely done, the first useful tab of this song! No Idea who gave you just a 2star-rating.

0 reply
Jessi7 wrote on May 16 2010, 04:02 pm

Yes, it's a good tab, thank you!

0 reply
Who66 wrote on July 8 2011, 03:11 pm

the "second acoustic guitar" is actually a dulcimer.

I want to post or [tab]
guest
You may want to rate the tab now too:
select rating
Please do not post tabs as comments. Select "correction" instead!