Oops, an error
Loading. Please wait.

Love In Vain Tab

version 2
version 2

Whole song

Interactive

11,176 views 12 this week
no commentswrite comment
1 2 3 4 5
please rate
add to favorites
launch autoscroll
font size
0
reset
how to read this tab
guitar tuner
Tab Pro tools
  • play this tab
  • loop segment
  • change instrument
  • show fretboard
  • metronome
×
Best way to learn
"Love In Vain"
Autoscroll
slow
fast
+/-
esc
set tempo
stop
Contributor
Difficulty
intermediate
This is the version found on the dvd "stripped". It's a bit different than the original version.
this is the video
http://www.youtube.com/watch?v=fuKyPPvuRVI&feature=related
p = pull-off
s = slide to
G
|---------------------------|---------------3-----------|
|--------0------------0----|----------------------------|
|------0---0-------0----0-|----------2s4---4s2p0--------|
|----0-------0---0---------|----------------------------|
|----------------------------|--------------------------|
|--3-----------3------------|--3-2-0--------------------|

  C                                        G 			 D
|-----------------------------|-3-3---1-----|---------1--------|
|--------1--1-----------------|-0--0--0-----|-0--1--3--3-------|
|----0---0h2p0----------------|-0-----0-----|--2--2--2--2------|
|----0h2--------2p0-----------|-0-----0-----|---0--0--0--------|
|--3------------------(2p0)----|-0-----0-----|-----------------|
|---------------------------3-|-3-----3-----|------------------|

   G                                  G7
|-------------|----------------|-1---1---1--1----|-0---1----0----1--------|
|----0------0---|----0------0--|--0---0---3--3---|-2-2-2-2--2-2-----------|
|---0-0----0-0--|--0-0----0-0--|---0---0---0--0--|----0---0----0----------|
|--0---0--0---0-|-0---0--0---0-|-----------------|------------------------|
|---------------|--------------|-----------------|------------------0-2-3-|
|-3------3------|3-------3-----|-----------------|------------------------|

   C                    G       			     D
|---------------|-----------------|---------0h2----|-------------------------|
|---1-----1-----|---0h1-----0h1---|----0---3---3---|-----3-------------3-----|
|--0-0---0------|--2---2---2---2--|---0-0-2-----2--|---2---2--------2--------|
|-2---2-2-------|-0-----0-0-----0-|--0---0---------|--0------0---0----------0|
|3-----3----3-2-|-----------------|----------------|---------------------0-2-|
|---------------|2-------2--------|-3--------------|-2---------2-------------|

   D        D/F#         G        				G7     		D
|---0h2------------|-------3--------0-----------------|
|--3---3----3------|---------------------1-1----------|
|-2-----2--2-------|--2s4---4s2p0-0------0h2p0--------|
|0--------0--------|-----------------0h2------2p0-----|
|------------------|---------------3--------------2p0-|
|--------2-----2-2-|0---------------------------------|

|-3--3-3-|-------------1----|
|-1--1-0-|---0--1---3---3---|
|-0----0-|--2----2---2---2--|
|-0----0-|-0------0---0-----|
|------0-|------------------|
|-3----3-|------------------|
Repeat from the third line
comments
We did not receive enough feedback on this tab! Please rate:
print report bad tab
1 2 3 4 5
I want to post or [tab]
guest
You may want to rate the tab now too:
select rating
Please do not post tabs as comments. Select "correction" instead!