Oops, an error
Loading. Please wait.

Midnight Rambler Tab

version 2
version 2

Intro

Whole song

Interactive

13,211 views 18 this week
no commentswrite comment
1 2 3 4 5
not so good
x 5
add to favorites
launch autoscroll
font size
0
reset
how to read this tab
guitar tuner
Tab Pro tools
  • play this tab
  • loop segment
  • change instrument
  • show fretboard
  • metronome
Autoscroll
slow
fast
+/-
esc
set tempo
stop
Contributor
Difficulty
novice
Midnight Rambler - The Rolling Stones               

Tabbed by: GrateTheHouse

Email: nolanjohnselex@gmail.com

Tuning: Standard

Rhythm Guitar:

  Upstrokes ^ ^

e|----------7-5---------------------------------------|
B|----------7-5---------------------------------------|
G|----------------------------------------------------|
D|-4-4-6-4------------------------Repeat 7 more times-|
A|-2-2-2-2-------2-2-4-2-2-2-4-2----------------------|
E|---------------0-0-0-0-0-0-0-0----------------------|

   ^ ^  ^ ^

e|-7-5--5-2-------------------------------------------|
B|-7-5--5-3-------------------------------------------|
G|----------------------------------------------------|
D|----------------------------Repeat 3 more times-----|
A|-----------2-2-4-2-2-2-4-2--------------------------|
E|-----------0-0-0-0-0-0-0-0--------------------------|

Slide Guitar: (around 0:57)

e|----------------------------------------------------|
B|----------------------------------------------------|
G|-----------4/9\7------------------------------------|
D|-7/9--9\7---------Repeat 3 more times---------------|
A|----------------------------------------------------|
E|----------------------------------------------------|

| /  slide up
| \  slide down
| h  hammer-on
| p  pull-off
| ~  vibrato
| +  harmonic
| x  Mute note
comments
print report bad tab
I want to post or [tab]
guest
You may want to rate the tab now too:
select rating
Please do not post tabs as comments. Select "correction" instead!