Oops, an error
Loading. Please wait.

No Expectations Tab

version 3
version 3

Whole song

Interactive

23,896 views 27 this week
2 commentsread comments
1 2 3 4 5
excellent!
x 14
add to favorites
launch autoscroll
font size
0
reset
how to read this tab
guitar tuner
Tab Pro tools
  • play this tab
  • loop segment
  • change instrument
  • show fretboard
  • metronome
×
Best way to learn
"No Expectations"
Autoscroll
slow
fast
+/-
esc
set tempo
stop
Difficulty
intermediate
Guitar 1 (slide): Open E tuning EAEG#Be
   A             E
E |---------------12-----------------|
B |-----5---------12-----------------|
G#|-4/5---5-----5/12-----------------|
E |---------5------------------------|
B |----------------------------------|
E |----------------------------------|

   A           E
E |----------------------------------|
B |-----5------0---------------------|
G#|-4/5---5----0---------------------|
E |---------5--0---------------------|
B |----------------------------------|
E |----------------------------------|

     D      A        E
E |-9/10---4/5-----11/12-------------|
B |-9/10---4/5-----11/12-------------|
G#|-9/10---4/5-----11/12--11/12------|
E |-9/10---4/5-----11/12-------------|
B |-9/10---4/5-----11/12-------------|
E |-9/10---4/5-----11/12-------------|

Guitar 2: EADGBe
 A               E 
Take me to the station
    A            E 
And put me on a train
     A            E 
I've got no expectations
    D            A     E 
To pass through here again

Once I was a rich man
Now I am so poor
But never in my sweet short life
Have I felt like this before

Your heart is like a diamond
You throw your pearls at swine
And as I watch you leaving me
You pack my piece of mind

Our love was like the water
That splashes on a stone
Our love is like our music
It's here, and then it's gone

So take me to the airport
And put me on a plane
I got no expectations
To pass through here again




comments
print report bad tab
2 comments total.
0 reply
SamTheRunninMan wrote on December 9 2007, 05:07 pm

This tab is right on the money, except for thing: if you're going to play with the recording, tune down half a step to
Eb (Eb-Ab-Eb-G-Bb-Eb). It'll sound great and reduce some tension on the neck as opposed to regular open-E tuning.

0 reply
Guggeswe wrote on September 25 2011, 06:40 am

great tab but the open E tuning isn't "EAEG#Be" it's EBEG#Be

I want to post or [tab]
guest
You may want to rate the tab now too:
select rating
Please do not post tabs as comments. Select "correction" instead!