Oops, an error
Loading. Please wait.
We have Chord Pro version of Paint It Black.
It's the closest thing you can get to the original song and it has interactive parts. Check out the tab »
×
90,177 views 45 this week
10 commentsread comments
1 2 3 4 5
x 23
add to favorites
×
Save as Personal and add changes to this tab that will be seen only by you. Learn more ›
×
You can save this tab as Personal to edit and correct it or add notes. All changes will be seen only by you. Learn more »
launch autoscroll
font size
0
reset
guitar tuner
backing track
0:00
0:00
edit
Autoscroll
slow
fast
+/-
esc
set tempo
stop
Author
Unregistered
[Intro]


        w         w      e e e e e e e e   e e e e e e e e  
G|-----------|---------|-----------------|-----------------|
D|4:----R----|----R----|---2---2---2---2-|---2---2---2---2-|
A|4:---------|---------|-2---2---2---2---|-2---2---2---2---|
E|-----------|---------|-----------------|-----------------|
     drums


[Verse]


    e e e e e e e e   e e e e e e e e   e e e e e e e e   e e e e e e e e   
G|------------------|-----------------|-----------------|------------------|
D|*---2---2---2---2-|---2---2---2---2-|---4---4---4---4-|---4---4---5---4-*|
A|*-2---2---2---2---|-2---2---2---2---|-2---2---2---2---|-2---2---2---2---*|
E|------------------|-----------------|-----------------|------------------|


[Chorus]


   e e q q q   q q q q   q q q q   q q q q   e e q q q   q q q q   q q q q  
G|-----------|---------|---------|---------|-----------|---------|---------|
D|-2-2-2-0-0-|---------|-2-2-2-2-|-2-2-2-2-|-2-2-2-0-0-|---------|---------|
A|-----------|-----5-5-|---------|---------|-----------|-----5-5-|-0-0-0-0-|
E|-----------|-3-3-----|---------|---------|-----------|-3-3-----|---------|

   q q q q 
G|---------|
D|---------|
A|-2-2-2-2-|
E|---------|


[Final]

    e e e e e e e e   e e e e e e e e   e e   e e e e   e e   e e   e e e e   e e
G|------------------|-----------------|---------------------|----------------------|
D|*---2---2---2---2-|---2---2---2---2-|---R-----R---R-----R-|---R-----R---R-----R-*|
A|*-2---2---2---2---|-2---2---2---2---|-2---/14\--2---/14\--|-2---/14\--2---/14\--*|
E|------------------|-----------------|---------------------|----------------------|
                                                                     Repeat Ad Lib



************************************

| /  Slide up
| \  Slide down
| *  reprise
| R  rest

************************************

            
            
Suggest correction
Creating personal tab
Creating personal tab
You can edit any tab online and save it as your Personal.

You can edit, replace or remove any tab part or add personal notes – all changes will be seen only by you.

Personal tabs can be accessed anytime from any device, even offline.
Learn more »
comments
print report bad tab
10 comments total. Showing first comments.
0 reply
Lukewashburn22 40 Jul 24, 2006 12:28 PM

Sweet tab!

0 reply
the gigalo 215 Jun 05, 2007 12:43 PM

not accuate and wrong listen again my friend

0 reply
wichonespink 10 Jun 09, 2007 11:35 AM

wats tie

guest
Wanna post a correction for this tab? Suggest correction