Oops, an error
Loading. Please wait.

Paint It Black Tab

version 1
version 1
2,038,432 views 3,000 this week
131 commentsread comments
1 2 3 4 5
accurate
x 292
add to favorites
launch autoscroll
font size
0
reset
how to read this tab
guitar tuner
Tab Pro tools
  • play this tab
  • loop segment
  • change instrument
  • show fretboard
  • metronome
×
Best way to learn
"Paint It Black"
Autoscroll
slow
fast
+/-
esc
set tempo
stop
Capo
3rd fret


[Intro]    
e|-----0----0----0--|-----0----0-----0---0-|-----0----0----0---|-------2----------|
B|---5---7----8-----|-10----8-----7----5---|--5----4-----5---7-|-2h4h5----5p4p2h4-|
G|------------------|----------------------|-------------------|------------------|
D|------------------|----------------------|-------------------|------------------|
A|------------------|----------------------|-------------------|------------------|
E|------------------|----------------------|-------------------|------------------|

e|--0---------------|--0-------------------|
B|--0---------------|--0-------------------|
G|--0---------------|--0-------------------|
D|--2---------------|--2-------------------|
A|--2---------------|--2-------------------|
E|--0---------------|--0-------------------|


[Verse]
     Em                                                      
e|----------0---0---0-|-----0---0---0---0-|----0---0---0---0-|-0----0----0----|
B|--------5---7---8---|--10---8---7---5---|--5---4---5---7---|-5\4--4\2--2/4--|
G|--------------------|-------------------|------------------|----------------|
D|--------------------|-------------------|------------------|----------------|
A|--------------------|-------------------|------------------|----------------|
E|--------------------|-------------------|------------------|----------------|

          I see a red door . . . 
                                                                                                         
[Chorus] 
                                            
e|-----3---2--2--|-----3-2-2--|-----3--3-3---------3---2--|-3-5-3-2-3-|
B|-----0---3--3--|-----0-3-3--|-----0--0-0---------0------|-----------|
G|-----0---2--2--|-----0-2-2--|-----0--0-0---------0------|-----------|
D|---------0--0--|-----0-0-3--|---------------------------|-----------|
A|---------------|------------|---------------------------|-----------|
E|--0------------|-3----------|--0------------------------|-----------|
                               
e|---3--2--2--|------------|-----------|
B|---0--3--3--|-2--2--2--2-|--4-4-4-4--|
G|---0--2--2--|-2--2--2--2-|--4-4-4-4--|
D|------0--0--|-2--2--2--2-|--4-4-4-4--|
A|------------|------------|-----------|
E|-0----------|------------|-----------|


(Verse and Chorus x5)



[Outro] 

     Em                                                      
e|----------0---0---0-|-----0---0---0---0-|----0---0---0---0-|-0----0----0----|
B|--------5---7---8---|--10---8---7---5---|--5---4---5---7---|-5\4--4\2--2/4--|
G|--------------------|-------------------|------------------|----------------|
D|--------------------|-------------------|------------------|----------------|
A|--------------------|-------------------|------------------|----------------|
E|--------------------|-------------------|------------------|----------------|

(Repeat to end)









Fingerstyle 
capo 2 fret


[Intro] 
e|--------0-----1-----3-----|--1-----0---------------|--------------------|
B|--3-----------------------|--3-----3-----3-----2---|--3---5-------0h2h3-|
G|--------------------------|--------2--2------------|--------------------|
D|-----0-----0-----0-----0--|-----0-----------0------|--------------------|
A|--------------------------|------------------------|--------------------|
E|--------------------------|------------------------|--------------------| 
    
e|--0-------------|
B|------3p2p0-2---|
G|----------------|
D|----------------|
A|----------------|
E|----------------|


[Verse]
e|--1--|--------------------1--|
B|--3--|--------------------3--|
G|--2--|--------------------2--|
D|--0--|-----0-----0-----0--0--|
A|-----|--------0-----0-----0--|
E|-----|-----------------------|


e|-----------------------------|---------------------------|
B|-----------------------------|---------------------------|
G|--0h2p0----------0-----------|--0-----------0h2p0--------|
D|--------2-----2-----2-----2--|-----2-----2---------3--2--|
A|-----------4-----------4-----|--------4------------------|
E|-----------------------------|---------------------------|


Verse Melody
e|--------------|--5-----------|------------------|------------------|
B|-----5--7--8--|-----8--7--5--|--5h7p5--4--5--7--|--5--4h5p4p2h4----|
G|--------------|--------------|------------------|------------------|
D|--------------|--------------|------------------|------------------|
A|--------------|--------------|------------------|------------------|
E|--------------|--------------|------------------|------------------|


[Chorus]
   Dm    C        F     C        Dm             Dm           

   Dm    C        F     C        G              A       




***********************************
| /   Slide up
| \   Slide down
| h   Hummer-on
| p   Pull-off
***********************************

    
comments
print report bad tab
131 comments total. Showing first comments. show 1 bad comment
+10 reply
Mister_D wrote on December 25 2001, 12:00 am

Hey....thanks man....thats the right tab...

+52 reply
VaYnE wrote on February 10 2002, 12:00 am

dude the first tabs kick ass,the others i didn't try them yet,OH and the other guy,its called PAINT IT BLACK u dumb ass

I want to post or [tab]
guest
You may want to rate the tab now too:
select rating
Please do not post tabs as comments. Select "correction" instead!