Oops, an error
Loading. Please wait.

Prodigal Son Tab

version 1
version 1

Whole song

Interactive

39,022 views 102 this week
no commentswrite comment
1 2 3 4 5
x 18
add to favorites
×
Save as Personal and add changes to this tab that will be seen only by you. Learn more ›
×
You can save this tab as Personal to edit and correct it or add notes. All changes will be seen only by you. Learn more »
save as personal
new!
launch autoscroll
font size
0
reset
how to read this tab
guitar tuner
Autoscroll
slow
fast
+/-
esc
set tempo
stop
Tuning
E B E G# B E
open E tuning

[Intro]
E |----------------3--0------------|
B |---------------------0----------|
G#|-----------------------1p0-0----|
E |-3-0---0---0--------------------|
B |-----3--------------------------|
E |---------3----------------------|
        
(The following two chords are played in a very fast strumming pattern. Do not 
play all six strings all the time, but damp them with you right hand. Every 
other bar a little riff is played.)

     E A
E |-0-0-|---0----0------0-|-0-0-|---0----0------0-|-(0-0-0-0)-|-0-0-|
B |-0-2-|-----0h2---0h2---|-0-2-|-----0h2---0h2---|-(2-2-3-4)-|-0-2-|
G#|-0-1-|-----------------|-0-1-|-----------------|-(1-1)-----|-0-1-|
E |-0-0-|-----------------|-0-0-|-----------------|-(0-0-0-0)-|-0-0-|
B |-0-2-|-----------------|-0-2-|-----------------|0h2-2-3-4--|-0-2-|
E |-0-X-|-0---------------|-0-X-|-0---------------|-----------|-0-X-|

(Now the singing starts, with the following basic pattern accompanying the 
singing. The strumming rhythm 'follows' the voice, and I show only the 'chords' 
played.)

The poor boy took his father's bread and started down the road
E |--3---0------------3---0---------------3---------------0--|
B |--2---0------------2---0---------------2---------------0--|
G#|-(0)-(0)----------(0)-(0)-------------(0)-------------(0)-|
E |----------------------------------------------------------|
B |----------------------------------------------------------|
E |----------------------------------------------------------|

    Started down the road    Took all he had and started down the road
E |--7---------------0-----|--0--0-----------------------------------|
B |--9---------------0-----|--0--2-----------------------------------|
G#|--8---------------0-----|--0--1-----------------------------------|
E |------------------------|--0--0-----------------------------------|
B |------------------------|--0--2-----------------------------------|
E |------------------------|--0--X-----------------------------------|
                             <- the same strumming pattern as above ->

                       Goin' out in this world where God only knows    
E |---0----0------0-|-0--0----------------------------------------|
B |-----0h2---0h2---|-0--2----------------------------------------|
G#|-----------------|-0--1----------------------------------------|
E |-----------------|-0--0----------------------------------------|
B |-----------------|-0--2----------------------------------------|
E |-0---------------|-0--X----------------------------------------|
                      <-   the same strumming pattern as above   ->

   And that will be the way to get along
E |-------------------------------------|---0------0------0----|
B |----(2)------(2)----(3)---(4)--------|------0h2---0h2-------|
G#|----(1)------(1)---------------------|----------------------|
E |----(0)------(0)----(0)---(0)--------|----------------------|
B |-----2--------2------3-----4---------|----------------------|
E |-------------------------------------|-0--------------------|
  
E |-------------------------------------|---0------0------0----|
B |----(2)------(2)----(3)---(4)--------|------0h2---0h2-------|
G#|----(1)------(1)---------------------|----------------------|
E |----(0)------(0)----(0)---(0)--------|----------------------|
B |-----2--------2------3-----4---------|----------------------|
E |-------------------------------------|-0--------------------|

[Outro]
E |--2---|
B |--3---|
G#|--0---|
E |------|
B |------|
E |------|


************************************

| p    Pull-off
| h    Hammer-on
| (n)  Ghost note
| >    Accented note

************************************
Suggest correction
comments
print report bad tab
guest
Wanna post a correction for this tab? Suggest correction