Oops, an error
Loading. Please wait.

Rocks Off tab

version 2
version 2

Whole song

Interactive

18,531 views 78 this week
3 commentsread comments
1 2 3 4 5
x 8
add to favorites
×
Save as Personal and add changes to this tab that will be seen only by you. Learn more ›
×
You can save this tab as Personal to edit and correct it or add notes. All changes will be seen only by you. Learn more »
launch autoscroll
font size
0
reset
how to read this tab
guitar tuner
backing track
0:00
0:00
edit
Autoscroll
slow
fast
+/-
esc
set tempo
stop
[Intro]
(Gtr 1)     (OPEN G !) 
D|--------------------------------------|
B|---9--9--10-9---------------------9---|
G|---9--9---9-9---------------------9---|
D|---9--9--11-9---------------------9---|
G|---9--9---9-9-11--11-------11-11--9---|
D|---------------8---8----8---9--9------|
 
(Gtr 1)
D|--------------------------------------|-------------------------------------|
B|---9--9--10-9---------------------9---|-9--9--10-9----------------------9---|
G|---9--9---9-9---------------------9---|-9--9---9-9----------------------9---|
D|---9--9--11-9---------------------9---|-9--9--11-9----------------------9---|
G|---9--9---9-9-11--11-------11-11--9---|-9--9---9-9---11--11-----11--11--9---|
D|---------------8---8----8---9--9------|---------------8---8---8--9---9------|

(Gtr 2)
D|---------------2---2------------------|---------------------------------0---|
B|---9--9--10-9--2---2--------4--4--9---|-9--9--10-9---11-----------------0---|
G|---9--9---9-9--3---3--------4--4--9---|-9--9---9-9---11---9--9--9---4---1---|
D|---9--9--11-9-----------4---4--4--9---|-9--9--11-9---11--11--9--9---4---2---|
G|--------------------------------------|---------------------------------2---|
D|--------------------------------------|---------------------------------0---|

[Bass]
G|--------------------------------------|-------------------------------------|
D|--------------------------------------|-------------------------------------|
A|--------------------------------------|-------------------------------------|
E|--------------------------------------|---------------------------------0---|
 
(Gtr 1)
D|--------------------------------------|-------------------------------------|
B|----------------9--10--9--10----------|--9--10--9--10-----------------------|
G|----------------9---9--9---9----------|--9---9--9---9-----------------------|
D|---------9--11--9--11--9--11----------|--9--11--9--11-----------------------|
G|----9h13--------9---9--9---9----------|--9---9--9---9-----------------------|
D|--------------------------------------|-------------------------------------|

(Gtr 2)
D|--------------------------------------|-------------------------------------|
B|--------------------------------------|-------------------------------------|
G|--------------------------------------|-------------------------------------|
D|---------2-------------2--------------|-------------------------------------|
G|----2h4-----4-------------------------|--2--2--4---2------------------------|
D|----------------0----------3--4-------|-------------------------------------|
 
[Bass]
G|--------------------------------------|-------------------------------------|
D|---------2----------------------------|-------------------------------------|
A|----2h4-----4------4--2--4------------|--4--2--4----------------------------|
E|----------------0-----------0---------|-------------0-----------------------|
 
[Verse]
(Gtr 1)
D|--------------------------------------|-------------------------------------|
B|----2--3---2----3------4---5-----4--5-|---9------9-9-10-9---9-9-10-9--------|
G|----2--2---2----2------4---4-----4--4-|---9------9-9--9-9---9-9--9-9--------|
D|----2--4---2----4------4---6-----4--6-|---9------9-9-11-9---9-9-11-9--------|
G|----2--2---2----2------4---4-----4--4-|---9------9-9--9-9---9-9--9-9--------|
D|--------------------------------------|-------------------------------------|
   
(Gtr 2)
D|--------------------------------------|-------------------------------------|
B|--------------------------------------|-------------------------------------|
G|-------2-------2-----------4-------4--|---1---------------------------------|
D|---------2-------------------4--------|---2--------2-------2----------------|
G|-----x-----0-----------x-------2------|---2----2h4---4-----------2-2-4-2----|
D|--------------------------------------|---0------------0-----3-4------------|

[Bass]
G|--------------------------------------|-------------------------------------|
D|--------------------------------------|------------2------------------------|
A|----0--0--0----0-------2--2--2-----2--|--------2h4---4------4-2-4-----------|
E|--------------------------------------|---0------------0--------------------|
 
(Gtr 1)
D|--------------------------------------|-------------------------------------|
B|--2-2-3-2-2-3-----------2----3--2-3---|-2-2-3-2-2-3-----------2----3--2-3---|
G|--2-2-2-2-2-2-----------2----2--2-2---|-2-2-2-2-2-2-----------2----2--2-2---|
D|--2-2-4-2-2-4-----------2----4--2-4---|-2-2-4-2-2-4-----------2----4--2-4---|
G|--2-2-2-2-2-2-----------2----2--2-2---|-2-2-2-2-2-2-----------2----2--2-2---|
D|--------------------------------------|-------------------------------------|

(Gtr 2)
D|--------------------------------------|-------------------------------------|
B|--------------------------------------|-------------------------------------|
G|----2----2--------------2--------2----|---2-----2-------------2-------2-----|
D|--2-2-4--2-2-4-x--------2-2-4-x--2-4--|-2-2-4---2-2-4-x-------2-2-4-x-2-4---|
G|--0-----x---------------0--------0----|-0-----x---------------0-------0-----|
D|--------------------------------------|-------------------------------------|

[Bass]
G|--------------------------------------|-------------------------------------|
D|----------2-2-4-2--------------2-2-4-2----------2-2-4-2--------------2-2-4-2+
A|--0-0-3-4--------------0-0-3-4--------|-0-0-3-4--------------0-0-3-4--------|
E|--------------------------------------|-------------------------------------|
 
(Gtr 1)
D|--------------------------------------|-------------------------------------|
B|--4-4-5-4-4-5-----------4--5--4--5----|-4-4-5-4-4-5-----------4--5--4--5----|
G|--4-4-4-4-4-4-----------4--4--4--4----|-4-4-4-4-4-4-----------4--4--4--4----|
D|--4-4-6-4-4-6-----------4--6--4--6----|-4-4-6-4-4-6-----------4--6--4--6----|
G|--4-4-4-4-4-4-----------4--4--4--4----|-4-4-4-4-4-4-----------4--4--4--4----|
D|--------------------------------------|-------------------------------------|

(Gtr 2)
D|--------------------------------------|-------------------------------------|
B|--------------------------------------|-------------------------------------|
G|----4-----4-------------4--------4----|---4-----4-------------4-------4-----|
D|--4-4-6---4-4-6-x-------4-4-6-x--4-6--|-4-4-6---4-4-6-x-------4-4-6-x-4-6---|
G|--2-----x---------------2--------2----|-2-----x---------------2-------2-----|
D|--------------------------------------|-------------------------------------|

[Bass]
G|--------------------------------------|-------------------------------------|
D|----------4-4-6-4-------------4-4-6-4-|---------4-4-6-4--------------4-4-6-4+
A|--2-2-5-6-------------2-2-5-6---------|-2-2-5-6--------------2-2-5-6--------|
E|--------------------------------------|-------------------------------------|
 
(Gtr 1)
D|--------------------------------------|-------------------------------------|
B|---2-2-3---2-2-3-----9-10--9-10-------|--9-9--10---9-9-10-------------------|
G|---2-2-2---2-2-2-----9--9--9--9-------|--9-9---9---9-9--9-------------------|
D|---2-2-4---2-2-4-----9-11--9-11-------|--9-9--11---9-9-11-------------------|
G|---2-2-2---2-2-2-----9--9--9--9-------|--9-9---9---9-9--9-------------------|
D|--------------------------------------|-------------------------------------|
    me

(Gtr 2)
D|--------------------------------------|-------------------------------------|
B|--------------------------------------|-------------------------------------|
G|----2---------------1-----------------|-------------------------------------|
D|--2--------2-2-4-2--2-------2---------|--2----------------------------------|
G|--0---3-4-----------2--2h4----4-------|---------2--2-4-2--------------------|
D|--------------------0-----------0-----|----3-4-----------0------------------|
 
[Bass]
G|--------------------------------------|-------------------------------------|
D|----------2-2-4-2-----------2---------|-------------------------------------|
A|--0-0-3-4--------------2h4----4-------|--4-2-4-----4-2-4--------------------|
E|-------------------0-------------0----|--------0---------0------------------|
 
[Chorus]
(Gtr 1)
D|---4--4-------------------------------|---------------------------------------------|
B|---5--5---4------4--4-----------------|-4----4-----2-3-2-3--9-10-9-10--9-9-10-9-10--|
G|---4--4---4------4--4-----------------|-4----4-----2-2-2-2--9--9-9--9--9-9--9-9--9--|
D|---6--6---4------4--4-----------------|-4----4-----2-4-2-4--9-11-9-11--9-9-11-9-11--|
G|---4--4------4------------------------|-4----4-----2-2-2-2--9--9-9--9--9-9--9-9--9--|
D|--------------------------------------|---------------------------------------------|

  I only get my rocks off            
                                       
(Gtr 2)
D|--------------------------------------|---------------------------------------------|
B|--------------------------------------|---------------------------------------------|
G|---4--4-------------------------------|-------------2--------------1----------------|
D|---4--4---6------4--4-----------------|-4---4-----2-------2-2-4-2--2-----2----------|
G|---2--2---2--x---2--2-----------------|-2---2-----0---3-4----------2-2h4---4--------|
D|--------------------------------------|----------------------------0---------0------|

[Bass]
G|--------------------------------------|---------------------------------------------|
D|--------------------------------------|-------------------2-2-4-2--------2----------|
A|---2--2---2------2--------------------|-----------0-0-3-4------------2h4---4--------|
E|--------------------------------------|----------------------------0---------0------|
 
[Bridge]
(Gtr 1)
D|--------------------------------------|-------------------------------------|
B|--------------------------------------|--------------5----------------5-----|
G|--------------------------------------|--------------6----------4-----6-----|
D|--4----------------------------2------|-4h6--4h6-----6-->>--4h6---6---6-->>-|
G|--6---------------------6---6---------|-----------6--6--------------6-6-----|
D|--4---------------------4-------------|-------------------------------------|

(Gtr 2)
D|--2---------------------2-------------|--------------9---9-12-9-9-12--9--9-12-9-9-9-|
B|--2---------------------2-------------|--------------9---9--9-9-9--9--9--9--9-9-9-9-|
G|--3-->>-----------------3--->>>-------|--------------9---9--9-9-9--9--9--9--9-9-9-9-|
D|--4---------------------4-------------|-------------11---------------11-------------|
G|--4---------------------4-------------|-------------11---------------11-------------|
D|--2---------------------2-------------|--------------9----------------9-------------|

[Bass]
G|--------------------------------------|-------------------------------------|
D|--------------------------------------|-4h6--4h6----------------------------|
A|---------------------------4---4------|-----------4--4------4---------4-----|
E|--2-----2-2-------------2-------------|-------------------------------------|
 
(Gtr 1)                                                          (9 times)
D|--------------------------------------|-------------------------------------|
B|--------------------------------------|--------------5----------------4....-|
G|--------------------------------------|--------------6----------4-----4....-|
D|--4----------------------------2------|-4h6--4h6-----6-->>--4h6---6---4....-|
G|--6---------------------6---6---------|-----------6--6--------------6-4....-|
D|--4---------------------4-------------|-------------------------------------|

(Gtr 2)
D|--2---------------------2-------------|--------------9---9-12-9-9-12--7|
B|--2---------------------2-------------|--------------9---9--9-9-9--9--7|
G|--3-->>-----------------3--->>>-------|--------------9---9--9-9-9--9--8|
D|--4---------------------4-------------|-------------11----------------9|
G|--4---------------------4-------------|-------------11----------------9|
D|--2---------------------2-------------|--------------9----------------7|

[Bass]
G|--------------------------------------|-------------------------------------|
D|--------------------------------------|-4h6--4h6----------------------------|
A|----------------------------4---4-----|-------------4-----------------2-----|
E|--2----2-2--------------2-------------|-------------------------------------|


************************************

| h  Hammer-on
| x  Dead note

************************************

            
            
Suggest correction
Creating personal tab
Creating personal tab
You can edit any tab online and save it as your Personal.

You can edit, replace or remove any tab part or add personal notes – all changes will be seen only by you.

Personal tabs can be accessed anytime from any device, even offline.
Learn more »
comments
print report bad tab
3 comments total.
0 reply
tylersugarcarlo 591 Sep 24, 2015 07:04 PM, edited on September 25 2015, 02:40 am

!

0 reply
Catdaddywow 10 Mar 23, 2016 01:46 PM

Well you gotta figure that if the tabber took the time to notice the alternate tuning ( which Keith uses like oxygen)it is probably correct. If not real precise probably damn close. Got you most of the way there; now do the rest on foot.

0 reply
florygregory1 10 Mar 30, 2016 03:26 AM

Great job man! You're the only one who got it right. Sounds better with a guitar in open G.

guest
You may want to rate the tab now too:
select rating
Wanna post a correction for this tab? Suggest correction