Oops, an error
Loading. Please wait.

Satisfaction Tab

version 2
version 2

Whole song

Video

587,227 views 1,743 this week
10 commentsread comments
1 2 3 4 5
x 50
add to favorites
launch autoscroll
font size
0
reset
how to read this tab
guitar tuner
backing track
0:00
0:00
×
Best way to learn
"Satisfaction"
Autoscroll
slow
fast
+/-
esc
set tempo
stop
Author
tabbed by jptrol


To begin with the simplest the rhythm acoustic guitar plays only three basic chords :

E :  022100
A :  577655
B :  799877

Each chord begins with two downstrokes then you alternate upward and downward
strokes until the next change of chord. 

The bass: it enters at the third note. Each time the lead guitar plays B B it
plays E E but not simultaneously. 




[Intro]
                                         E             A
E|-------------------------------------|-------------------------------------|
B|-------------------------------------|-------------------------------------|
G|-------------------------------------|-------------------------------------|
D|-------------------------------------|-------------------------------------|
A|--2--2-----2--4---5--5-5p4---4(p2)---|--2--2----2--4--5---5--5p4----4(p2)--|
E|-------------------------------------|-------------------------------------|

G|-------------------------------------|-------------------------------------|
D|------------------7--7-7-6-----------|----------------7---7---7-6----------|
A|-----------7--9-7------------9-------|--7----7--7--9-7--------------9------|
E|-------------------------------------|-------------------------------------|
               bass enters here             drums and rhythm enter here
                         
    E               A                     E             A
E|-------------------------------------|-------------------------------------|
B|-------------------------------------|-------------------------------------|
G|-------------------------------------|-------------------------------------|
D|-------------------------------------|-------------------------------------|
A|--2--2-----2--4---5--5-5p4---4(p2)---|--2--2----2--4--5---5--5p4----4(p)-2-|
E|-------------------------------------|-------------------------------------|

G|-------------------------------------|-------------------------------------|
D|------------------7--7-7-6-----------|----------------7---7---7-6----------|
A|--7----7---7--9-7------------9-------|--7----7--7--9-7--------------9------|
E|-------------------------------------|-------------------------------------|


[Chorus]

    E                                     A
E|-------------------------------------|-------------------------------------|
B|-------------------------------------|-------------------------------------|
G|-------------------------------------|-----2------2--2--2------------------|
D|------------------------2------------|-------2-------------------2---------|
A|-----------------2---4------4--------|--0-------0--0--0---2---4-----4------|
E|-------------------------------------|-------------------------------------|

G|-------------------------------------|-------------------------------------|
D|-------------------------------------|--7---7-------7--7-------------------|
A|--7--7-----7--7------7--9---7--------|---------7----------7---7--9--7------|
E|--------7--------7-------------------|-------------------------------------|
  I can't get no oo...                    Satisfaction onn ... 

    E                                     A
E|-------------------------------------|-------------------------------------|
B|-------------------------------------|-------------------------------------|
G|---1------1-1-1----------------------|-----2------2--2--2------------------|
D|-----2--2---------------2------------|-------2-----------------------------|
A|-----------------2---4------4--------|--0-------0--0--0-------0--4--0------|
E|--0---0----0-0-----------------------|-------------------------------------|

G|-------------------------------------|-------------------------------------|
D|-------------------------------------|--7---7-------7--7-------------------|
A|--7--7-----7--7------7--9---7--------|---------7----------7---7--9--7------|
E|--------7--------7-------------------|-------------------------------------|
 I can't get no oo...                    Satisfaction onn ... 

   E            B                          E                A
E|-------------------------------------|-------------------------------------|
B|-------------------------------------|-------------------------2-----------|
G|---1------1---2----------------------|------1--------1----2------------2---|
D|-----2--------2---------2--4p2-------|---2-----2---------------------2-----|
A|-------------------2h4----------4----|----------------------------0--------|
E|-0-----0-----------------------------|-----------0-------------------------|

G|-------------------------------------|-------------------------------------|
D|-----------------9-9--9----7---------|-------------------7-----7--7--6-----|
A|-7--7-----7-9-7-----------------9----|---7--7-7-9-7--------------------9---|
E|-------7-----------------------------|-------------------------------------|
  cos I try, and I try                   and I try    and I try a a,  I can't  



[Verse]  

(the same patterns are repeated over and over)

    E               A                     E             A
E|-------------------------------------|-------------------------------------|
B|-------------------------------------|-------------------------------------|
G|-------------------------------------|-------------------------------------|
D|-------------------------------------|-------------------------------------|
A|--2--2-----2--4---5--5-5p4---4(p2)---|--2--2----2--4--5---5--5p4----4(p2)--|
E|-------------------------------------|-------------------------------------|

G|-------------------------------------|-------------------------------------|
D|------------------7--7-7-6-----------|----------------7---7---7-6----------|
A|--7----7---7--9-7------------9-------|--7----7--7--9-7--------------9------|
E|-------------------------------------|-------------------------------------|
  GET  NO                  I can't       GET NO                when I'm
  driving  in my  car   and that         man comes on the radio   and he's 
  telling memoreand more about some      useless infor_mation  supposed to
  
    E               A                     E             A
E|-------------------------------------|-------------------------------------|
B|-------------------------------------|-------------------------------------|
G|-------------------------------------|-------------------------------------|
D|-------------------------------------|-------------------------------------|
A|--2--2-----2--4---5--5-5p4---4(p2)---|--2--2----2--4--5---5--5p4----4(p)-2-|
E|-------------------------------------|-------------------------------------|

G|-------------------------------------|-------------------------------------|
D|------------------7--7-7-6-----------|----------------7---7---7-6----------|
A|--7----7---7--9-7------------9-------|--7----7--7--9-7--------------9------|
E|-------------------------------------|-------------------------------------|
   fire my imagi_  nation  I can't       GET NO                oh no no   


E     drums only
no !               eh hey hey ..

    E               A                     E             A
E|-------------------------------------|-------------------------------------|
B|-------------------------------------|-------------------------------------|
G|-------------------------------------|-------------------------------------|
D|-------------------------------------|-------------------------------------|
A|--2--2-----2--4---5--5-5p4---4(p2)---|--2--2----2--4--5---5--5p4----4(p2)--|
E|-------------------------------------|-------------------------------------|

G|-------------------------------------|-------------------------------------|
D|------------------7--7-7-6-----------|----------------7---7---7-6----------|
A|--7----7---7--9-7------------9-------|--7----7--7--9-7--------------9------|
E|-------------------------------------|-------------------------------------|
   hey               That's what I       say


When I'm watching my t.v. 
And a man comes on and tells me 
How white my shirts could be 
But he   - can't be a man cos' he doesn't smoke 
The same cigarettes as me 
 I can't get no, 
 oh no no no. 
  
When I'm riding around the world 
And I'm doing this and I'm signing that 
And I'm trying to meet some girl 
Who tells me "Baby better come back maybe next week, 
Cos you see I'm on a losing streak" 
I can't get no, 
oh no no no. 


*******************
|h  Hammer-on
|p  Pull-off
*******************
Suggest correction
comments
print report bad tab
10 comments total. Showing first comments.
+1 reply
cronic 10 Jan 14, 2005 07:00 PM

this is great

0 reply
Strat Master 10 Apr 18, 2006 11:00 AM

guitar tabs, bass tabs, and lyrics! nice.

0 reply
lovethesolo 10 Dec 03, 2006 03:23 PM

nice bro! now i can hve a jam with my bassist friend :D, cheers

guest
You may want to rate the tab now too:
select rating
Wanna post a correction for this tab? Suggest correction