Oops, an error
Loading. Please wait.
We have an official Satisfaction tab made by UG professional guitarists. Check out the tab »
×
253,991 views 156 this week
8 commentsread comments
1 2 3 4 5
x 78
add to favorites
×
Save as Personal and add changes to this tab that will be seen only by you. Learn more ›
×
You can save this tab as Personal to edit and correct it or add notes. All changes will be seen only by you. Learn more »
launch autoscroll
font size
0
reset
how to read this tab
guitar tuner
backing track
0:00
0:00
edit
Autoscroll
slow
fast
+/-
esc
set tempo
stop
Author
[Intro]

e|--------------------------|
B|--------------------------|
G|--------------------------|
D|--------------------------|
A|-2--2----2--4--5----5--4--| REPEAT 4x then play the first note:-2-and end Riff until the verse.
E|--------------------------|


[Chorus]

E              A             E              A
I can't get no satisfaction  I can't get no satisfaction (Improvise Until Riff) 
             E              B7             E          A
Cause I try     and I try       and I try    and try  

                      
A        E            A  D       A       E             A  D
I can't get no                  I can't get no
e|---------------------------------------------------------------------------|
B|---------------------------------------------------------------------------|
G|---------------------------------------------------------------------------|
D|---------------------------------------------------------------------------|
A|------2---2------2--4--5-----5—4-----2---2------2--4--5--------------------|
E|---------------------------------------------------------------------------|

   A    E               A  D        A      E             A  D
  When I'm driving    in my car    and the man comes on the radio
e|---------------------------------------------------------------------------|
B|---------------------------------------------------------------------------|
G|---------------------------------------------------------------------------|
D|---------------------------------------------------------------------------|
A|5-----4---2---2------2--4--5-----5----4---2----2----2--4---5----5--4-------|
E|---------------------------------------------------------------------------|

A     E               A  D        A      E             A  D
he's telling me more and more   about some useless information
e|---------------------------------------------------------------------------|
B|---------------------------------------------------------------------------|
G|---------------------------------------------------------------------------|
D|---------------------------------------------------------------------------|
A|------2---2------2--4--5-----5—4-----2---2------2--4--5--------------------|
E|---------------------------------------------------------------------------|

  A            E          A   D       A      E             D
  supposed to drive my imagination  I can't get no
e|---------------------------------------------------------------------------|
B|---------------------------------------------------------------------------|
G|---------------------------------------------------------------------------|
D|---------------------------------------------------------------------------|
A|-------5--4---2---2----2--4--5-----5--4----2--2------2--4--5---------------|
E|---------------------------------------------------------------------------|
     A      E    (NC)       E      A  D      A           E      A D

  Oh no  no  no    hey  hey  hey            That's what I say
e|---------------------------------------------------------------------------|
B|---------------------------------------------------------------------------|
G|---------------------------------------------------------------------------|
D|---------------------------------------------------------------------------|
A|---5--4-----2---------------2--2---2-4-5---5--4----------2-2---2-4-5--5-4--|
E|---------------------------------------------------------------------------|

E              A             E              A
I can't get no satisfaction  I can't get no satisfaction (Improvise Until Riff) 
             E              B7             E          A
Cause I try     and I try       and I try    and try 
 

A        E            A  D       A       E             A  D
I can't get no                  I can't get no
e|---------------------------------------------------------------------------|
B|---------------------------------------------------------------------------|
G|---------------------------------------------------------------------------|
D|---------------------------------------------------------------------------|
A|------2---2------2--4--5-----5—4-----2---2------2--4--5--------------------|
E|---------------------------------------------------------------------------|

   A       E           A  D        A      E            A  D
  When I'm watching   my  T.V.    and the man comes on and tells me
e|---------------------------------------------------------------------------|
B|---------------------------------------------------------------------------|
G|---------------------------------------------------------------------------|
D|---------------------------------------------------------------------------|
A|5-----4---2---2------2--4--5-----5----4---2----2----2--4---5----5--4-------|
E|---------------------------------------------------------------------------|

  A     E               A  D        A      E             A  D
  How white my shirts  could be   but he can't be a man cause he doesn't smoke
e|------------------------------------------------------------------------------|
B|------------------------------------------------------------------------------|
G|------------------------------------------------------------------------------|
D|------------------------------------------------------------------------------|
A|------2---2----------2--4--5----5---4----2---2-------2--4--5-------------5--4-|    
E|------------------------------------------------------------------------------|

A      E             A   D       A      E             A  D
The same cigarettes as me      I can't get no
e|---------------------------------------------------------------------------|
B|---------------------------------------------------------------------------|
G|---------------------------------------------------------------------------|
D|---------------------------------------------------------------------------|
A|------2---2------2--4--5-----5—4-----2---2------2--4--5--------------------|
E|---------------------------------------------------------------------------|

       A      E    (NC)       E      A  D      A           E      A D
  Oh no  no  no    hey  hey  hey            That's what I say
e|---------------------------------------------------------------------------|
B|---------------------------------------------------------------------------|
G|---------------------------------------------------------------------------|
D|---------------------------------------------------------------------------|
A|---5--4-----2---------------2--2---2-4-5---5--4----------2-2---2-4-5--5-4--|
E|---------------------------------------------------------------------------|


E              A             E              A
I can't get no satisfaction  I can't get no satisfaction (Improvise Until Riff) 
              E              B7             E          A
Cause I try     and I try       and I try    and try  
 

A        E            A  D       A       E             A  D
I can't get no                  I can't get no
e|---------------------------------------------------------------------------|
B|---------------------------------------------------------------------------|
G|---------------------------------------------------------------------------|
D|---------------------------------------------------------------------------|
A|------2---2------2--4--5-----5—4-----2---2------2--4--5--------------------|
E|---------------------------------------------------------------------------|

   A          E         A  D        A       E             A  D
  When I'm  ridin' roundtheworld   and I'm doing this and I'm singing that
e|---------------------------------------------------------------------------|
B|---------------------------------------------------------------------------|
G|---------------------------------------------------------------------------|
D|---------------------------------------------------------------------------|
A|5-----4---2---2------2--4--5-----5----4---2----2----2--4---5----5--4-------|
E|---------------------------------------------------------------------------|

  A     E               A  D        A         E             A  D
  I'm trying to get some girl she tells me a baby better come back Maybe next week
e|------------------------------------------------------------------------------|
B|------------------------------------------------------------------------------|
G|------------------------------------------------------------------------------|
D|------------------------------------------------------------------------------|
A|------2---2----------2--4--5----5---4----2---2-------2--4--5-------------5--4-|    
E|------------------------------------------------------------------------------|

A      E                D       A      E             A  D
cause you see I'm on a losing streak  I can't get no
e|---------------------------------------------------------------------------|
B|---------------------------------------------------------------------------|
G|---------------------------------------------------------------------------|
D|---------------------------------------------------------------------------|
A|------2---2------2--4--5-----5—4-----2---2------2--4--5--------------------|
E|---------------------------------------------------------------------------|

       A      E    (NC)       E      A  D      A           E      A D
  Oh no  no  no    hey  hey  hey            That's what I say
e|---------------------------------------------------------------------------|
B|---------------------------------------------------------------------------|
G|---------------------------------------------------------------------------|
D|---------------------------------------------------------------------------|
A|---5--4-----2---------------2--2---2-4-5---5--4----------2-2---2-4-5--5-4--|
E|---------------------------------------------------------------------------|

A        E            A  D       A       E             A  D
I can't get no                  I can't get no
e|---------------------------------------------------------------------------|
B|---------------------------------------------------------------------------|
G|---------------------------------------------------------------------------|
D|---------------------------------------------------------------------------|
A|------2---2------2--4--5-----5—4-----2---2------2--4--5--------------------|
E|---------------------------------------------------------------------------|

 A        E           A  D       A       E         A  D
I can't get no                  satisfaction
e|---------------------------------------------------------------------------|
B|---------------------------------------------------------------------------|
G|---------------------------------------------------------------------------|
D|---------------------------------------------------------------------------|
A|------2---2------2--4--5-----5—4-----2---2------2--4--5--------------------|
E|---------------------------------------------------------------------------|

  A        E            A  D       A       E          A  D
  No satisfaction                 no satisfaction
e|---------------------------------------------------------------------------|
B|---------------------------------------------------------------------------|
G|---------------------------------------------------------------------------|
D|---------------------------------------------------------------------------|
A|5---4----2---2------2--4--5-----5--4----2---2------2--4--5-----------------|
E|---------------------------------------------------------------------------|

  A        E            A  D       A       E          A  D
  No satisfaction                 I can't get no 
e|---------------------------------------------------------------------------|
B|---------------------------------------------------------------------------|
G|---------------------------------------------------------------------------|
D|---------------------------------------------------------------------------|
A|5---4----2---2------2--4--5-----5--4-----2---2------2--4--5----------------|
E|---------------------------------------------------------------------------|

      A  
  Oh no no no! 
e|------------||
B|------------||
G|------------||
D|------------||
A|--5--4----2-|| <---------------END ON THIS NOTE
E|------------||

            
            
Suggest correction
Creating personal tab
Creating personal tab
You can edit any tab online and save it as your Personal.

You can edit, replace or remove any tab part or add personal notes – all changes will be seen only by you.

Personal tabs can be accessed anytime from any device, even offline.
Learn more »
comments
print report bad tab
8 comments total. Showing first comments.
0 reply
Dr FeelGood 15 Mar 07, 2006 07:13 PM

Spot on!

-1 reply
asaladybug 10 Jul 16, 2006 11:43 AM

non accurate

0 reply
DropkickCW 10 Jan 06, 2007 06:27 PM

not a 100% but it works for me. thanks

guest
You may want to rate the tab now too:
select rating
Wanna post a correction for this tab? Suggest correction