Oops, an error
Loading. Please wait.

Shes A Rainbow Chords

version 1
version 1

Whole song

Interactive

112,422 views 297 this week
5 commentsread comments
1 2 3 4 5
x 13
add to favorites
launch autoscroll
font size
0
reset
transpose
0
reset
simplify chords
display chords
guitar tuner
×
Best way to learn
"Shes A Rainbow"
Autoscroll
slow
fast
+/-
esc
set tempo
stop
The entire song is the following barre chords:
F - 8th FRET
Eb & Bb & Bb7 - 6th FRET


[Intro]
                                                      
e|-8--10--11--13--15--18--17--17--17--15--18--17--| then basically the
B|------------------------------------------------| same with some
G|------------------------------------------------| improvising.
D|------------------------------------------------|
A|------------------------------------------------|
E|------------------------------------------------|


[Verse]

F  Bb                          Eb
     She comes in colors ev'rywhere
               Bb
She combs her hair
             Bb7 Bb
She's like a rainbow
                      Eb
Coming, colors in the air
          Bb
Oh, everywhere
              F       Bb   
She comes in colors


[Instrumental]
                                                      
e|-8--10--11--13--15--18--17--17--17--15--18--17--| 
B|------------------------------------------------|  
G|------------------------------------------------|  
D|------------------------------------------------|
A|------------------------------------------------|
E|------------------------------------------------|


[Verse]

F Bb                           Eb
     She comes in colors ev'rywhere
               Bb
She combs her hair
             Bb7 Bb
She's like a rainbow
                      Eb
Coming, colors in the air
          Bb
Oh, everywhere
              F      Bb
She comes in colors          


(back to intro plus play all the chords
in the first verse)


[Instrumental]
                                                      
e|-8--10--11--13--15--18--17--17--17--15--18--17--| 
B|------------------------------------------------|  
G|------------------------------------------------|  
D|------------------------------------------------|
A|------------------------------------------------|
E|------------------------------------------------|


[Verse]
                              F
Have you seen her dressed in blue?
See the sky in front of you
And her face is lik a sail
Speck of white so fair and pale
                      Bb
Have you seen a lady fairer?
                          Eb
She comes in colors ev'rywhere
               Bb
She combs her hair
             Bb7 Bb
She's like a rainbow
                      Eb
Coming, colors in the air
          Bb
Oh, everywhere
              F      Bb
She comes in colors


[Verse]
                          F
Have you seen her all in gold?
Like a queen in days of old
She shoots her colors all around
Like a sunset going down
                      Bb
Have you seen a lady fairer?
                          Eb
She comes in colors ev'rywhere
               Bb
She combs her hair
             Bb7 Bb
She's like a rainbow
                      Eb
Coming, colors in the air
          Bb
Oh, everywhere
              F     Bb 
She comes in colors      


[Instrumental]
                                                      
e|-8--10--11--13--15--18--17--17--17--15--18--17--| 
B|------------------------------------------------|  
G|------------------------------------------------|  
D|------------------------------------------------|
A|------------------------------------------------|
E|------------------------------------------------|

F  Bb    Eb   Bb

(add pick scrapes)


[Outro]

             Bb7 Bb
She's like a rainbow
                      Eb
Coming, colors in the air
          Bb
Oh, everywhere
              F     Bb
She comes in colors
Suggest correction
comments
print report bad tab
5 comments total. Showing first comments.
+1 reply
the piper 1,413 Jan 21, 2007 05:35 PM

this is good but the chords arent on the frets you say they are. They're just in their normal places.

+2 reply
Rock*Star 10 Jun 15, 2007 10:52 PM

and the intro is totally wrong. it's actually not just "with some improvising"

it's
E|----------3--6~~|-5--------|o|-5-------3~~~|-------|o|
B|-3--5--6--------|-----6----| |-----6-------|---6---| |
G|----------------|---5---5--|o|---5---5-----|-5---5-|o|
(repeat 1 time)
and then it gets complicated, but if i wanted to post this tab, i'd do it in a power tab, and i've only tabbed about half of it. so i'll leave this bit of gold for you guys.

have fun! i havent tried the chords admitadely, but i scored it with a 2 just for the intro, cuz that's the biggest part of the song. sry.

+1 reply
Rock*Star 10 Jun 15, 2007 10:53 PM

damnit. stupid ug. well... you get the idea right? i think so.

guest
You may want to rate the tab now too:
select rating
Wanna post a correction for this tab? Suggest correction