Oops, an error
Loading. Please wait.

Shes A Rainbow chords

version 2
version 2

Whole song

Interactive

15,702 views 18 this week
3 commentsread comments
1 2 3 4 5
x 3
add to favorites
×
Save as Personal and add changes to this tab that will be seen only by you. Learn more ›
×
You can save this tab as Personal to edit and correct it or add notes. All changes will be seen only by you. Learn more »
launch autoscroll
font size
0
reset
transpose
0
reset
display chords
guitar tuner
edit
Autoscroll
slow
fast
+/-
esc
set tempo
stop
Author
Strumming
There is no strumming pattern for this song yet. and get +5 IQ
She's Like A Rainbow:Rolling Stones.
#25 on BB Hot 100 on LONDON Records
in 1967.

INTRO: Bb F Bb

---------------------8-7---------------
----------6--8--10---------------------
----7--9-------------------------------
---------------------------------------
---------------------------------------
---------------------------------------

---------------5--8--7------------------
---------6--8---------8-6-3-------------
---7--9---------------------------------
----------------------------------------
----------------------------------------
----------------------------------------
    

CHORUS:
Bb                       Eb
She comes in colors everywhere..she combs 
    Bb
her hair..she's like a rainbow.
                      Eb            Bb
Coming, colors in the air..oh, everywhere..
             F     Bb
she comes in colors.


INTERLUDE:

---------------------8-7---------------
----------6--8--10---------------------
----7--9-------------------------------
---------------------------------------
---------------------------------------
---------------------------------------

---------------5--8--7------------------
---------6--8---------8-6-3-------------
---7--9---------------------------------
----------------------------------------
----------------------------------------
----------------------------------------
    
CHORUS:
Bb                       Eb
She comes in colors everywhere..she combs 
    Bb
her hair..she's like a rainbow.
                      Eb            Bb
Coming, colors in the air..oh, everywhere..
             F     Bb
she comes in colors.


INTERLUDE:PIANO:

#1.
Bb                           F
Have you seen her dressed in blue?..see the 

sky in front of you and her face is like a 

sail..speck of white so fair and pale?
                     Bb
Have you seen a lady fairer?

CHORUS:
Bb                       Eb
She comes in colors everywhere..she combs 
    Bb
her hair..she's like a rainbow.
                      Eb            Bb
Coming, colors in the air..oh, everywhere..
             F     Bb
she comes in colors.
                         
#2.
Bb                       F
Have you seen her all in gold?..like a queen 

in days of old?
F
She shoots her colors all around, like a sunset 

going down.
                     Bb
Have you seen a lady fairer?

CHORUS:
Bb                       Eb
She comes in colors everywhere..she combs 
    Bb
her hair..she's like a rainbow.
                      Eb            Bb
Coming, colors in the air..oh, everywhere..
             F     Bb
she comes in colors.

INTERLUDE:

---------------------8-7---------------
----------6--8--10---------------------
----7--9-------------------------------
---------------------------------------
---------------------------------------
---------------------------------------

---------------5--8--7------------------
---------6--8---------8-6-3-------------
---7--9---------------------------------
----------------------------------------
----------------------------------------
----------------------------------------

OUTRO:                    
Bb                                          Eb
She's like a rainbow..coming, colors in the air..
         Bb                  F     Bb
oh, everywhere, she comes in colors.     


A sixties smash from Kraziekhat.  
Suggest correction
Creating personal tab
Creating personal tab
You can edit any tab online and save it as your Personal.

You can edit, replace or remove any tab part or add personal notes – all changes will be seen only by you.

Personal tabs can be accessed anytime from any device, even offline.
Learn more »
Give kudos to tab author, rate the tab!
1 2 3 4 5
comments
print report bad tab
3 comments total.
0 reply
iceflower93 62 Aug 11, 2014 06:40 PM

Lack of accuracy. Clearly wrong.

0 reply
Kraziekhat 64,745 Aug 12, 2014 01:25 AM

I screwed this up. Sorry, sorry, sorry. I'll
re-do it and hopefully I'll get it right. KK.

0 reply
Kraziekhat 64,745 Aug 13, 2014 12:43 AM

O.K., I re-did the whole thing and hopefully it's
much better. KK.

guest
You may want to rate the tab now too:
select rating
Wanna post a correction for this tab? Suggest correction