Oops, an error
Loading. Please wait.

Start Me Up tab

version 2
version 2

Whole song

Interactive

156,673 views 42 this week
18 commentsread comments
1 2 3 4 5
x 27
add to favorites
×
Save as Personal and add changes to this tab that will be seen only by you. Learn more ›
×
You can save this tab as Personal to edit and correct it or add notes. All changes will be seen only by you. Learn more »
launch autoscroll
font size
0
reset
how to read this tab
guitar tuner
backing track
0:00
0:00
edit
Autoscroll
slow
fast
+/-
esc
set tempo
stop
Author
Unregistered
Start Me Up                                   
Jagger/ Richards 

                   C       F/C                                     G5  
e|-------------------|---------------------|-------------------------|
B|----------------5--|----6--6----------5--|----6--6h-5--5--5--6-----|
G|----------------5--|----5--5----------5--|----5--5-----5--5--5--0--|
D|----------------5--|----7--7----------5--|----7--7h-5--5--5--7--0--|
A|----------------5--|------------------5--|----5--5--------5--5--0--|
E|-------------------|---------------------|-------------------------|


    Bb   Bb6                                     C                         
e|------------------------|-------------------------|---------------------|
B|------------------------|-------------3-----3--5--|----6--6----------5--|
G|--3----3----3-----3--3--|-------3-----3--3--3--5--|----5--5----------5--|
D|--3----5----3-----5--3--|----3--5--3--3--3--3--5--|----7--7----------5--|
A|--3----3----3--3-----3--|----3--3--3--3-----3--5--|-------5----------5--|
E|------------------------|-------------------------|---------------------|


                             Bb   Bbsus4add13                               
e|----5----------5--5-----|-----------------------|------------------------|
B|----6--6--5----6--6-----|--3----4----3-------3--|----3--4--3----3--3--5--|
G|----5--5--5----5--5--0--|--3----3----3----3--3--|----3--3--3----3--3--5--|
D|----7--7--5----7--7--0--|--3----5----3----5--3--|----3--5--3----3--3--5--|
A|-------5--5-------------|--3---------3-------3--|-------3----------------|
E|------------------------|-----------------------|------------------------|


                                                                          
e|----------------------|----5--------------5--0--|------------------------|
B|--5--6--6----------5--|----6--6--5--5--5--6--0--|--3---------3--------3--|
G|--5--5--5----------5--|----5--5--5--5--5--5--0--|--3---------3--------3--|
D|--5--7--7----------5--|----7--7--5--5--5--7--0--|--3----5----3-----5--3--|
A|--5-----5----------5--|-------5-----5-----------|--3----3----3--3--3--3--|
E|----------------------|-------------------------|------------------------|


                                                                         
e|-----------------------|----------------------|-------------------------|
B|----3--4----3--3-------|--5--6--6----------5--|----6--6--5--5--6--6-----|
G|----3--3----3--3----5--|--5--5--5----------5--|----5--5--5--5--5--5--0--|
D|----3--5----3--3----5--|--5--7--7----------5--|----7--7--5--5--7--7--0--|
A|----3-------3--3-------|--5----------------5--|----5-----5--5-----5-----|
E|-----------------------|----------------------|-------------------------|


                                                                          
e|------------------------|-------------------------|----------------------|
B|--3---------------------|----3-----------3-----5--|--5--6--6----------5--|
G|--3----5--3--3----3--3--|----3--5-----3--3--5--5--|--5--5--5----------5--|
D|--3----3-----3----5--3--|----3--5-----3--3--5--5--|--5--7--7----------5--|
A|-------------3----3--3--|----------3-----3--------|-----5--5----------5--|
E|------------------------|-------------------------|----------------------|


                                                                             
e|-------------------------|------------------------|-------------------------|
B|----6--6-----5--6--6-----|--------4----3----------|----3--------3--3/-5-----|
G|----5--5--5--5--5--5--0--|--3-----3----3-------3--|----3--------3--3/-5--5--|
D|----7--7--5--5--7--7--0--|--3-----5----3----5--3--|----3--5--3--3--3/-5--5--|
A|----5--5--5--5-----------|--3--3-------3----3--3--|----3--3--3--3-----------|
E|-------------------------|------------------------|-------------------------|


                                                                             
e|------------------------|-------------------------|-------------------------|
B|--5--6--6------------5--|----6--6--5--5--6--6-----|-------4--3-----3h-4--3--|
G|--5--5--5---------3--5--|----5--5--5--5--5--5--0--|--3----3--3-----3-----3--|
D|--5--7--7---------3--5--|----7--7--5--5--7--7--0--|--3----5--3-----3h-5--3--|
A|--5----------5-------5--|----5--------5-----5-----|--3----3-----3--3-----3--|
E|------------------------|-------------------------|-------------------------|


                            C                  F                                  
e|-----------------------|-------------------------|-----------------------------|
B|--------3-----3--x--5--|----5--5----5--5---------|-----------------------------|
G|--------3-----3--x--5--|----5--5----5--5--x--10--|--------10----------------5--|
D|--------3-----3--x--5--|----5--5----5--5--x--10--|----10------10--10--2--2--5--|
A|--------3--3--------5--|-------5----5-----x--10--|--------------------2--2--5--|
E|-----------------------|-------------------------|-----------------------------|


                                                                              
e|------------------------|----------------------------|-----------------------|
B|------------------------|--------10---------------5--|-------------0---------|
G|----5--5------0--x--10--|----10--10----------4/---5--|------5------0-----10--|
D|----5--5------0--x--10--|----10--10--10--10--4/---5--|------5---------7--10--|
A|----5--5------------10--|----10--10--10--10--4/---5--|------5------------10--|
E|------------------------|----------------------------|-----------------------|


                                                                         
e|-------------------------|----------------------|-----------------------|
B|-------------------------|-------6----5------5--|----5--6h-5--5------5--|
G|------10--10----8/-7--0--|--5----5----5------5--|----5--5-----5------5--|
D|------10--10----8/-7--0--|--5----7----5------5--|----5--7h-5--5------5--|
A|------10--10-------------|--5----5-----------5--|-------5-----5------5--|
E|-------------------------|----------------------|-----------------------|


                                                                      
e|----------------------|------------------------|--5----5-------------|
B|------5------5--5-----|------------------------|--5----6----------5--|
G|------5------5--5--0--|--8/-7--0--8/-7--0------|--5----5----------5--|
D|------5------5--5--0--|--8/-7--0--8/-7---------|--5----7----------5--|
A|------5---------------|------------------------|--5----5----------5--|
E|----------------------|------------------------|---------------------|


                                                                           
e|-----------------------|------------------------|-------------------------|
B|----6--6h-5----6-------|--3----4----3-----4--3--|----3--3-----3--3--3-----|
G|-------5-------5----0--|--3----3----3-----3--3--|----3--3-----3--3--3--5--|
D|----7--7h-5----7----0--|--3----5----3-----5--3--|----3--5-----3--3--3--5--|
A|-------5---------------|--3----3----3--3--------|----------3-----------5--|
E|-----------------------|------------------------|-------------------------|


                                                                      
e|----------------------|-----------------------|----------------------|
B|--5--6--6----------5--|----6------------6-----|----------------------|
G|--5--5--5----------5--|----5----5----5--5--0--|--3----3---------3----|
D|--5--7--7----------5--|----7---------5--7--0--|--3----5---------5----|
A|--5--5--5----------5--|----5---------5--5-----|--3----3----3----3----|
E|----------------------|-----------------------|----------------------|


                                                                         
e|---------------3-------|-------------------5--|----5--------------------|
B|----------3----3-------|-----6--6----------5--|----6-----------5h-6-----|
G|--3-------3----3----5--|-----5--5----------5--|----5-----5--5--5-----0--|
D|--3----5--3----3-------|--5--7--7----------5--|----7--5--5--5--5h-7-----|
A|--3----3--3----3-------|--5-----5----------5--|----5--5--5--5--5--------|
E|-----------------------|----------------------|-------------------------|


                                                                       
e|----------------------|---------------3--------|----------------------|
B|----------------------|---------------3--------|-----6--6----------5--|
G|------------3---------|--3---------3--3-----5--|--5--5--5----------5--|
D|--3----5----3----5----|--3----5----3--3--5-----|--5--7--7----------5--|
A|--3----3----3----3----|--3----3----3--3--------|--5--5--5----------5--|
E|----------------------|------------------------|----------------------|


                                                                           
e|----5-----------5--------|-------------------3--|-------------------------|
B|----6--6h-5-----6--------|-------------3h-4--3--|-------------------------|
G|----5--5-----5--5--5--0h-|--3----------3-----3--|----3--------3-----0--5--|
D|----7--7h-5--5--7--7--0--|--3----------3h-5--3--|----3--3--3--3-----0--5--|
A|-------5-----5-----5-----|----------------------|----3--3--3--3h-0--------|
E|-------------------------|----------------------|-------------------------|


                                                                          
e|-----------------------|-------------------------|-----------------------|
B|-----------------------|-------------------------|------5----------------|
G|----5------5--7----10--|----10------10--8/-7--5--|------5------0h-7--10--|
D|----5------5--7----10--|----10------10--8/-7--5--|------5------0h-7--10--|
A|----5------5--7----10--|----10------10--8/-7--5--|------5------------10--|
E|-----------------------|-------------------------|-----------------------|


                                                                           
e|-----------------------|------------------------|-------------------------|
B|-----------------------|------------------------|----------------------5--|
G|----10--------8--7--5--|------5----5--0h-7--10--|----10------10--8--0--5--|
D|----10--------8--7--5--|------5----5--0h-7--10--|----10------10--8-----5--|
A|----10--------8--7--5--|------5----5--------10--|----10------10--8-----5--|
E|-----------------------|------------------------|-------------------------|


                                                                    
e|----5--------------5--|----5-------5---------|---------------------|
B|----6h---5--5------5--|----6h---5--5------5--|------5--------------|
G|----5-------5------5--|----5-------5------5--|------5------5----5--|
D|----7h---5--5------5--|----7h---5--5------5--|------5------5----5--|
A|----5-------5------5--|----5-------5------5--|------5------5-------|
E|----------------------|----------------------|---------------------|


                                                                        
e|-----------------------|-------------------5--|------------------------|
B|-----------------------|--------6----------5--|----6--6--5-------6-----|
G|--8--8--7----8----7----|--5-----5----------5--|----5--5--5-------5--0--|
D|--8--8--7----8----7----|--5h-7--7----------5--|----7--7--5----5--7-----|
A|--8--8--7----8----7----|--5-----5----------5--|----5-----5----5--------|
E|-----------------------|----------------------|------------------------|


                                                                        
e|-----------------------|------------------------|-----5--5----------5--|
B|-----------------------|----3--4----3--3-----5--|--5--6--6----------5--|
G|--3----3----3----3--3--|----3--3----3--3--0--5--|--5--5--5----------5--|
D|--3----5----3----5--3--|----3--5----3--3--0--5--|--5--7--7----------5--|
A|--3----3----3-------3--|----3-------3--3-----5--|--5-----5----------5--|
E|-----------------------|------------------------|----------------------|


                                                                         
e|----5-----------------|-----------------------|----------------3--------|
B|----6----5----6-------|-----------------------|----------------3--------|
G|----5----5----5----0--|--3---------3--3----3--|----3--------3--3-----5--|
D|----7----5----7----0--|--3----5----3--3----3--|----3--5-----3-----5-----|
A|----5----5------------|--3----3----3--3----3--|----3--3--3--3-----------|
E|----------------------|-----------------------|-------------------------|


                                                                      
e|----------------------|-----------------------|----------------------|
B|-----6--6----------5--|----6----------6-------|-------------------3--|
G|--5--5--5----------5--|----5----5-----5-------|----3--3-----------3--|
D|--5--7--7----------5--|----7----5--5--7-------|----3--5----3------3--|
A|--5-----5----------5--|----5----5--5-------3--|-------3----3------3--|
E|----------------------|-----------------------|----------------------|


                                                                         
e|------------------------|-----------------------|-----------------------|
B|----3----3--3-----------|-----------------------|-----------------------|
G|----3----3--3--3h-0--5--|------5----5--7----10--|----10---------8----5--|
D|----3----3--3--3--0--5--|------5----5--7----10--|----10----x----8----5--|
A|----3----3-----------5--|------5----5--7----10--|----10----x----8----5--|
E|------------------------|-----------------------|-----------------------|


                                                                               
e|-----------------------|-----------------------------|------------------------|
B|--------------0--------|-----------------------------|------------------------|
G|-----------5--0----10--|----10--10--10--10--8--8-----|--5----5----5--0----10--|
D|------5----5--0----10--|----10--10--10--10--8--8-----|--5----5----5--0----10--|
A|------5----5-------10--|----10--10--10--10--8--8--0--|--5----5----5-------10--|
E|-----------------------|-----------------------------|------------------------|


                                                                       
e|-----------------------|----------------------|-----------------------|
B|--------------------0--|-------6----5------5--|-------6---------------|
G|----10------8--7----0--|--5----5----5------5--|----5--5----5--8-------|
D|----10------8--7----0--|--5----7----5------5--|----5--7----5--8-------|
A|----10------8--7-------|--5---------5------5--|----5-------5-------5--|
E|-----------------------|----------------------|-----------------------|


                                                                     
e|---------------------|------------------------|----5----------------|
B|---------------------|------------------------|----6--6----------5--|
G|----5------x--5------|----8--8--0--7--5-------|----5--5----------5--|
D|----5------x--5------|----8--8-----7--5----5--|----7--7----------5--|
A|----5------x--5------|----8--8-------------5--|----5--5----------5--|
E|---------------------|------------------------|---------------------|


                                                                         
e|------------------------|-----------------------|-----------------------|
B|----6--6--5----6--------|-----------------4--3--|----3--4---------------|
G|----5--5--5----5--------|--3----3----3----3--3--|----3--3--3---------5--|
D|----7--7--5----7--7--0--|--3----5----3----5--3--|----3--5--3------0--5--|
A|----5-----5-------5-----|--3----3----3----3--3--|----3-----3---------5--|
E|------------------------|-----------------------|-----------------------|


                                                                         
e|-------------------5--|----5--5----------------|------------------------|
B|-----6--6----------5--|----6--6h-5----6--6-----|------------------------|
G|-----5--5----------5--|----5--5-------5--5--0--|--3----3----3--3--x-----|
D|--5--7--7----------5--|----7--7h-5----7--7--0--|--3----5----3--3--x-----|
A|--5--5--5----------5--|---------------5--5-----|--3----3----3--3--x--3--|
E|----------------------|------------------------|------------------------|


                                                                           
e|----------------3--------|---------------------5--|-----------------------|
B|-----------3----3--------|-----6--6------5h-6--6--|--5--6----5----6-------|
G|--3-----3--3----3--3--5--|-----5--5------5-----5--|--5--5----5----5----0--|
D|--3-----5--3-------3--5--|--5--7--7------5h-7-----|--5--7----5----7----0--|
A|--3--3-----3-------3--5--|--5-----5------5--------|-----5----5----5-------|
E|-------------------------|------------------------|-----------------------|


                                                                        
e|-----------------------|------------------------|-----5----------------|
B|-----------------------|------------------------|--5--6--6----------5--|
G|-------3--3---------3--|----3--3----3--3--x--5--|--5--5--5----------5--|
D|--3----3--3---------3--|----3--3----3--3--x--5--|--5--7--7----------5--|
A|--3----3--3----3----3--|-------3----3--3-----5--|--5-----5----------5--|
E|-----------------------|------------------------|----------------------|


                                                                           
e|-------------------------|---------------------|--------------------------|
B|----6--6--5--5--6--6-----|---------3------3----|----4--------3--3--3------|
G|----5--5--5--5--5--5--0--|--3------3------3----|----3--------3--3--3--x-x-|
D|----7--7--5--5--7-----0--|--3------3------3----|----5--5--3--3--3--3--x-x-|
A|----5--5-----5-----------|--3------3------3----|----3--3--3--3--3--3--x-x-|
E|-------------------------|---------------------|--------------------------|


                                                                      
e|----------------------|------------------------|---------------------|
B|--5--6--6----------5--|----6--6h-5----6--6-----|---------3------3----|
G|--5--5--5----------5--|----5--5-------5--5--0--|--3------3------3----|
D|--5--7--7----------5--|----7--7h-5----7--7--0--|--3------3------3----|
A|--5--5--5----------5--|-------5-------5--------|--3------3------3----|
E|----------------------|------------------------|---------------------|


                                                                      
e|---------------------|----------------------|------------------------|
B|----3------4---------|-----6--6----------5--|----6--6h-5----6--6-----|
G|----3------3---------|-----5--5----------5--|----5--5-------5--5--0--|
D|----3------5----3----|--5--7--7----------5--|----7--7h-5----7--7-----|
A|----3------3----3----|--5-----5----------5--|-------5----------5-----|
E|---------------------|----------------------|------------------------|


                                                                        
e|-----------------------|------------------------|-----5--5------------||
B|-----------------------|---------------3--3-----|--5--6--6------------||
G|--3----3----3----------|--3----3----x--3--3--5--|--5--5--5------------||
D|--3----5----3----x--3--|--3----5----x--3--3--5--|--5--7--7------------||
A|--3----3----3----x--3--|--3----3----x--3--3--5--|--5--5--5------------||
E|-----------------------|------------------------|---------------------||



************************************

| h  Hammer-on
| /  Slide up
| x  Dead note  

************************************

            
            
Suggest correction
Creating personal tab
Creating personal tab
You can edit any tab online and save it as your Personal.

You can edit, replace or remove any tab part or add personal notes – all changes will be seen only by you.

Personal tabs can be accessed anytime from any device, even offline.
Learn more »
comments
print report bad tab
18 comments total. Showing first comments.
0 reply
davidgilmour 110 Aug 24, 2003 08:00 PM

i tabbed the full song this is what keith richards plays

0 reply
Señor 110 Jul 07, 2004 08:00 PM

perfect tab man!!!!!!!!!!! Keef would be impressed if he saw this:)

0 reply
Rockn_Clay 141 Aug 20, 2004 08:00 PM

looks like u copy pasted it, its too hard to understand

guest
Wanna post a correction for this tab? Suggest correction