Oops, an error
Loading. Please wait.

Streets Of Love tab

version 1
version 1

Whole song

Interactive

32,550 views 15 this week
no commentswrite comment
1 2 3 4 5
x 9
add to favorites
×
Save as Personal and add changes to this tab that will be seen only by you. Learn more ›
×
You can save this tab as Personal to edit and correct it or add notes. All changes will be seen only by you. Learn more »
launch autoscroll
font size
0
reset
how to read this tab
guitar tuner
edit
Autoscroll
slow
fast
+/-
esc
set tempo
stop
Author
    C                  Em7       Em               F
E|-----------0-------------0---------------0-----------1-------|
B|---------1--------------------------------------------1------|
G|------0--------------0-------------------------------2-------|
D|-----------------0---------------------2-----------3---------|
A|---3---------2---------------------2-----------3-------------|
E|--------------------------------0-------------1--------------|

INTRO: C - G - Em - F

C - G - Em - F
Your awful bright,
Your awful smart
I must admit
You broke my heart

C - G - Em - F
The awful truth
Is really sad
I must admit
I was awful bad

C - G - Am - G
While lovers laughed
And music plays
I stumbled by
And hide my pain

F - G - F - G
Umm the lamps are lit
The moon is gone
I think i've crossed the rubicon


Chorus:

C - G - Am - F
Ahh ahhaahha ahha ahhhhaaaa
Walked the streets of love
And they are full of tears

C - G - Am - F
Ahha ahaha ahaha ahaha
Walked the streets of love
And they are full of tears

Verse:
C - G - Em - F
Why music pokes
From passing cars
A couple watched,
Me from above

C - G - Em - F
A band just played
The wedding march
And the cornerstone
Mends broken hearts

C - G - Am - G
The woman ends
If for her debts
Ohh, its free of charge
Just one more chance


Chorus:

C - G - Am - F
Ahha ahaha ahaha ahaha
Walked the streets of love
And they are full of tears

C - G - Am - F
Ahha ahaha ahaha ahaha
Walked the streets of love
For a thousand years

Ohh...

SOLO:

--------------------------------------------------|
--------------------------------------------------|
-7-5-4-5---7-5-4-5---7-5-4-5---4—2----------------|
--------------------------------------------------|
--------------------------------------------------|
--------------------------------------------------|


----------------------------------------------------------|
----------------------------------------------------------|
-7-5-4-5---7-5-4-5---7-5-4-5---4—2---0--------------------|
----------------------------------------------2-----------|
----------------------------------------------------------|
----------------------------------------------------------|

C - G - Em - F
You had the moves
You had the cards
I must admit
You were awful smart

C - G - Em - F
The awful truth
Is awful sad
I must admit
I was awful bad


Chorus:

C - G - Am - F
Aahha ahaha ahahaaa ahhhaa
I walked the streets of love
For a thousand years

C - G - Am - F
Aahha ahaha ahahaaa ahhhaa
Walked the streets of love
And they are drenched in tears
Suggest correction
Creating personal tab
Creating personal tab
You can edit any tab online and save it as your Personal.

You can edit, replace or remove any tab part or add personal notes – all changes will be seen only by you.

Personal tabs can be accessed anytime from any device, even offline.
Learn more »
comments
print report bad tab
guest
You may want to rate the tab now too:
select rating
Wanna post a correction for this tab? Suggest correction