Oops, an error
Loading. Please wait.
We have an official The Last Time tab made by UG professional guitarists. Check out the tab »
×
20,289 views 39 this week
3 commentsread comments
1 2 3 4 5
x 5
add to favorites
×
Save as Personal and add changes to this tab that will be seen only by you. Learn more ›
×
You can save this tab as Personal to edit and correct it or add notes. All changes will be seen only by you. Learn more »
launch autoscroll
font size
0
reset
how to read this tab
guitar tuner
edit
Autoscroll
slow
fast
+/-
esc
set tempo
stop
Main Riff through verses
(lead guitar)
E----------------------------------|
B----------------------------------|   repeat through verses
G----------7------9-------7------6--|
D-----7/9-----9------0h9------7------|    E        D    A   is the rythm through
A---------------------------0-------|                                   verses
E----------------------------------|

sample:
(verse)
E                      D             A
Well I Told you once, and I told you twice.
(Chorus)
A                                                              D
Well This could eb the last time, this could be the last time, maybe the
           A
last time, I don't know.

(lead guitar at Chorus)
Well this could be the...

E--------------------------------------------------------------------------|
B---------------------------3-----3-----3----------------------------------|
G---2-----2-----2-----2----2-----2-----2------2-----2----------------------|
D--2-----2-----2-----2----0---0-0---0-0---0--2-----2-----------------------|
A-0---0-0---0-0---0-0---0-------------------0---0-0---0--------------------|
E--------------------------------------------------------------------------|

            
            
Suggest correction
Creating personal tab
Creating personal tab
You can edit any tab online and save it as your Personal.

You can edit, replace or remove any tab part or add personal notes – all changes will be seen only by you.

Personal tabs can be accessed anytime from any device, even offline.
Learn more »
comments
print report bad tab
3 comments total.
0 reply
shaunm51 10 Apr 30, 2008 09:11 AM

what the **** ? i dont get this at all none of it makes sense !

0 reply
ulfbert 10 Feb 28, 2011 11:25 PM

This is how i would play it:
E-----------------------------------|
B-----------------------------------|
G-----------7---9-----7---6---------|
D-------7/9---9---7h9---7-----------|
A-----------------------------------|
E-----------------------------------|
Finger: 3 1 3 4 1h3 1 2 1

0 reply
ulfbert 10 Feb 28, 2011 11:30 PM

actually i mean:

E-----------------------------------|
B-----------------------------------|
G-----------7---9-----7---6---------|
D-------8/9---9---7h9---7-----------|
A-----------------------------------|
E-----------------------------------|
--Finger: 3 1 3 4 1h3 1 2 1

guest
Wanna post a correction for this tab? Suggest correction