Oops, an error
Loading. Please wait.
We have an official The Last Time tab made by UG professional guitarists. Check out the tab »
×
4,034 views 72 this week
no commentswrite comment
1 2 3 4 5
x 22
add to favorites
×
Save as Personal and add changes to this tab that will be seen only by you. Learn more ›
×
You can save this tab as Personal to edit and correct it or add notes. All changes will be seen only by you. Learn more »
launch autoscroll
font size
0
reset
transpose
0
reset
display chords
guitar tuner
edit
Autoscroll
slow
fast
+/-
esc
set tempo
stop
Strumming
There is no strumming pattern for this song yet. and get +5 IQ
SONG:   THE LAST TIME
ARTIST: THE ROLLING STONES
TAB BY: DON CZARSKI
EMAIL:  GUITARZAN7@HOTMAIL.COM

                   THE LAST TIME 
                 THE ROLLING STONES

INTRO: 

GUITAR 1:
E D A   E D A   E D A   E D A 

GUITAR 2:
          MAIN RIFF
   E           D      A
E ---------------------------
B ---------------------------
G -----7----9------7------6--
D -7/9----9----0h9------7----
A --------------------0------
E ---------------------------


VERSE:
        E                   D         A   E D A
Well I told you once and I told you twice
              E              D     A    E D A
But that you never listen to my advice
 E                  D        A       E D A
You don't try very hard to please me
     E                 D        A    E D A
For what you know it should be easy


CHORUS:
      A                 D    A
Well this could be the last time
 A                 D    A
This could be the last time
 D                           A
Maybe the last time I don't know
    E D A      E D A
Oh no      Oh no


VERSE:
          E             D        A    E D A
Well I'm sorry girl but I can't stay
 E             D     A   E D A
Feelin' like I do today
        E                 D        A     E D A
Theres too much pain and too much sorrow 
 E                   D      A      E D A
Guess I'll feel the same tomorrow


CHORUS:
      A                 D    A
Well this could be the last time
 A                 D    A
This could be the last time
 D                           A
Maybe the last time I don't know
    E D A      E D A
Oh no      Oh no


INSTRUMENTAL/SOLO:

GUITAR 1:
E D A   E D A   E D A   E D A 
E D A   E D A   E D A   E D A 

GUITAR 2:
E -----12-----12--10--5--0--|------------------|
B ---------12-----10--5--0--|------3-----------|
G --13------------11--6--1--|--2/4----4-2p0----|
D --14-------------------2--|---------------2--|
A --------------------------|------------------|
E --------------------------|------------------|

E -----12-----12--10--5--0--|---------------------------|
B ---------12-----10--5--0--|---------------------------|
G --13------------11--6--1--|----12-14-14b-14b-14-12----|
D --14-------------------2--|-14---------------------14-|
A --------------------------|---------------------------|
E --------------------------|---------------------------|

E -----12-----12--10--5--0--|------------------|
B ---------12-----10--5--0--|------3-----------|
G --13------------11--6--1--|--2/4----4-2p0----|
D --14-------------------2--|---------------2--|
A --------------------------|------------------|
E --------------------------|------------------|

E -----12-----12--10--5--0--|--15b----------------------|
B ---------12-----10--5--0--|---------------------------|
G --13------------11--6--1--|-------14b-14b-12----------|
D --14-------------------2--|---------------------------|
A --------------------------|---------------------------|
E --------------------------|---------------------------|


CHORUS:
      A                 D    A
Well this could be the last time
 A                 D    A
This could be the last time
 D                           A
Maybe the last time I don't know
    E D A      E D A
Oh no      Oh no


VERSE:
        E                   D         A    E D A
Well I told you once and I told you twice
 E                 D        A   E D A
Some will have to pay the price
 E                   D          A   E D A
Here's a chance to change your mind
       E              D          A   E D A
Cause I'll be gone a long, long time


CHORUS:
      A                 D    A
Well this could be the last time
 A                 D    A
This could be the last time
 D                           A
Maybe the last time I don't know
    E D A      E D A
Oh no      Oh no


OUTRO: 
(PLAY - E D A - OVER AND OVER UNTIL END)

Last time baby 
The last time
Well I don't know
Could be the last time 
Oh, No  No  No
Could be the last time 
Oh, No  No  No
Could be the last time 
Well, No  No  No
Could be the last time 
Oh, No  No  No
Could be the last time 
Oh, No  No  No
Could be the last time 
Oh, No  No  No
Could be the last time
Oh, No  No  No
Could be the last time 
Oh, No  No  No
Could be the last time 
Oh, No  No  No
Could be the last time 
Oh, No  No  No
Could be the last time 
Oh, No  No  No
Could be the last time 
Oh, No  No  No
Could be the last time - FADE OUT




            
            
Suggest correction
Creating personal tab
Creating personal tab
You can edit any tab online and save it as your Personal.

You can edit, replace or remove any tab part or add personal notes – all changes will be seen only by you.

Personal tabs can be accessed anytime from any device, even offline.
Learn more »
comments
print report bad tab
guest
You may want to rate the tab now too:
select rating
Wanna post a correction for this tab? Suggest correction