Oops, an error
Loading. Please wait.

Tops tab

28 views 1 this week
2 commentsread comments
1 2 3 4 5
1 last vote to show rating
add to favorites
×
Save as Personal and add changes to this tab that will be seen only by you. Learn more ›
×
You can save this tab as Personal to edit and correct it or add notes. All changes will be seen only by you. Learn more »
launch autoscroll
font size
0
reset
how to read this tab
guitar tuner
edit
Autoscroll
slow
fast
+/-
esc
set tempo
stop
About this tab version
Complete song, Intro, Riffs, Solos, Chords, and Lyrics. Was this info helpful? Yes No
[Chords]
   Bb   Cm   Dm    Eb    Ab    Gm    Eb7   Db7
e|-6----8----10----11----11----10----11----9----|
B|-6----8----10----11----13----11----11----9----|
G|-7----8----10----12----13----12----12----10---|
D|-8----10---12----13----13----12----11----9----|
A|-8----10---12----13----11----10----13----11---|
E|-6----8----10----11----x-----------11----9----|

[Intro]
 (pick up)
e|--------|--------------------------------------|
B|--------|---------11---------------------------|
G|--------|---------8----------------------------|
D|--------|---------8--------8----8--------------|
A|-10/12\-|-10------10----10---10---------10/12\-|
E|-8-/10\-|-8-----------------------------8-/10\-|

e|--------------------------------------|
B|---------11---------------------------|
G|---------x----------------------------| 
D|---------8--------8----8--------------|                                                
A|-10-----(10)---10---10---------10/12\-|   
E|-8-----------------------------8-/10\-|

e|--------------------------------------|
B|---------11---------------------------|
G|---------8----------------------------| 
D|---------8--------8----8--------------|                                                
A|-10------10----10---10---------10/12\-|   
E|-8-----------------------------8-/10\-|       
       
e|--------------------------------------|
B|----------11--------------------------|
G|----------8----8-/10--\8--------------|
D|----------8----10/12--\10-------------|
A|-10-------10---------------8h10p8-8---|
E|-8------------------------------------|

Bb
  Everyman is the same come on
Cm/Dm\Cm
         I'll make you a star
    Bb
Ill take you a million miles from all this
Cm/Dm/Cm
        But you want a better start
Bb                    Cm/Dm\Cm
   Come on   (Come on, Come on_____)

[Verse 1]
Dm                           Eb
   Have you ever heard those opening lines
Ab                                 Eb    Gm
   You should leave the small town way behind
Dm                     Eb
  I'll be your partner    show you the steps
     Ab                             Eb              F
With me behind your tasting of the sweet wine of success

[Chorus]
       Bb                          Cm/Dm\Cm
Cause I'll___     I’ll take you   to the Top......Baby   
     Bb                       Cm/Dm\Cm
(Hey Baby)   I'll take you   to the Top
     Bb                    Cm/Dm\Cm
          I'll take you   to the Top......Baby
Bb                    Cm/Dm\Cm
     I'll take you   to the Top

[Verse 2]
Dm                  Eb
Step on the ladder,     toe in the pool
Ab                                 Eb             Gm
   You’re such a natural you don’t need no acting school
Dm                              Eb
   Don’t need no casting couch,     or be a star in bed
Ab                                 Eb             F
Never, never, never let success go to your pretty head

[Chorus]
       Bb                        Cm/Dm\Cm
Cause I'll___     I’ll take you to the Tops......Baby   
       Bb                     Cm  /  Dm  \  Cm
  (Hey Baby)   I swear we’re never going to stop......Baby
Bb                    Cm/Dm\Cm
     I'll take you   to the Top......Baby
Bb                    Cm/Dm\Cm
     I'll take you   to the Top
[Bridge]
Bb                             Eb7    Db7
  Don't let the world pass you by
Bb                             Eb7    Db7
  Don't let the world pass you by
Bb                             Eb7    Db7
  Don't let the world pass you by
         Bb                             Eb7
You just take your chance now baby, I’m sorry      for the rest
e|------------------13b15-----13--------------------|
B|-------11-----------------------13b15r13-11----11-|
G|--------------------------------------------12----|
D|--------------------------------------------------|
A|--------------------------------------------------|
E|--------------------------------------------------|

                Db7
Of those sweet spoken 

[Outro Chorus]
Bb        Cm/Dm\Cm
Lies                 Bab – ay
Bb        Cm/Dm\Cm
     Aww........sugar
     Bb                       Cm/Dm\Cm
(Hey Sugar, I’ll take you    to the Top
 Bb                       Cm/Dm\Cm
        I’ll take you    to the top... (Repeat and fade over Outro Solo)

[Outro Solo]
e|------------------------------------------------------------|
B|--------8-10/15-13~-----------------------------------------|
G|-----10-----------------------------------------------------|
D|------------------------------------------------------------|
A|------------------------------------------------------------|
E|------------------------------------------------------------|

e|------------------------------------------------------------|
B|--------8-10/15-13-------11-13-11---------------------------|
G|-----10-----------------------------10---------------10-----|
D|---------------------------------------12p10-8h10/12--------|
A|------------------------------------------------------------|
E|------------------------------------------------------------|

e|------------------------------------------------------------|
B|--------------------11---13b15r13-11----11---13---13/15~~~--|
G|-------------------------------------12---------------------|
D|------------------------------------------------------------|
A|------------------------------------------------------------|
E|------------------------------------------------------------|

e|---13b15r--13-------------------15-13-----------------------|
B|--------------13/15--13-----h15-------15-11/13---11---------|
G|----------------------------------------------------12-10---|
D|------------------------------------------------------------|
A|------------------------------------------------------------|
E|------------------------------------------------------------|

e|-13b15---r13------------------------------------------------|
B|-------------13b15r13-13~~~13/15-----15---15\13-11----------|
G|---------------------------------------------------12-10/8--|
D|------------------------------------------------------------|
A|------------------------------------------------------------|
E|------------------------------------------------------------|

e|------------------------------------------------------------|
B|-------11---11-11------11-13-13b15r13p11----11---11-11-11\\-|
G|-10h12--------------12-------------------12-----------------|
D|------------------------------------------------------------|
A|------------------------------------------------------------|
E|------------------------------------------------------------|

Fade...(solo continues in the same vain)


************************************

| x    Dead note
| /    Slide up
| \    Slide down
| (n)  Ghost note
| h    Hammer-on
| p    Pull-off
| b    Bend
| r    Release
| ~    Vibrato

************************************
Suggest correction
Creating personal tab
Creating personal tab
You can edit any tab online and save it as your Personal.

You can edit, replace or remove any tab part or add personal notes – all changes will be seen only by you.

Personal tabs can be accessed anytime from any device, even offline.
Learn more »
Give kudos to tab author, rate the tab!
1 2 3 4 5
comments
print report bad tab
2 comments total.
0 reply
bj4rny 39 Jul 12, 2017 08:41 AM

Brilliant tab, thanks for responding to The request!

guest
You may want to rate the tab now too:
select rating
Wanna post a correction for this tab? Suggest correction