Oops, an error
Loading. Please wait.

Walk Right In intro tab

853 views 27 this week
no commentswrite comment
1 2 3 4 5
x 3
add to favorites
×
Save as Personal and add changes to this tab that will be seen only by you. Learn more ›
×
You can save this tab as Personal to edit and correct it or add notes. All changes will be seen only by you. Learn more »
launch autoscroll
font size
0
reset
how to read this tab
guitar tuner
edit
Autoscroll
slow
fast
+/-
esc
set tempo
stop
The retuning can be ignored- the piece will play a semitone higher than the original.
12 string players often tune down- to save the neck!

Not fingerpicked- play with a plectrum.

The F#7 chord is played with thumb over the 6th string not with a barre 


[Intro]
   
           A                    F#7      B7   E
              ↓ ↑   ↓           ↓ ↑       ↓ ↑ ↓  ↓
e |-------|---5-5---5-|---------0-0---|---2-2-0--0-|----------------|
B |-------|---2-2---2-|---------2-2-0-|---0-2-0--0-|----------------|
G |-------|---2-2---2-|---------3-3---|---2-2-1--1-|----------------|
D |-------|---2-2---2-|---------2-2---|---1-1-2--2-|----------------|
A |-------|-0---------|-0-------4-----|-2-----2--2-|-0--4-2-4-0-----|
E |-0-2-4-|-------0---|---4-3-2-2-----|-------0--0-|------------2-0-|

 
   A                     F#7       B7           E
      ↓ ↑    ↓           ↓ ↑       ↓ ↑  ↓  ↓    ↓ ↑ ↓ ↑  ↓  ↓ ↑
e |---5-5----5-|---------0-0---|---2-2--2--2-|--0-0-0-0--0--0-0-|
B |---2-2----2-|---------2-2-0-|---0-0--0--0-|--0-0-0-0--2--0-0-|
G |---2-2----2-|---------3-3---|---2-2--2--2-|--1-1-2-1--1--1-1-|
D |---2-2----2-|---------2-2---|---1-1--1--1-|--2-2-2-2--2--2-2-|
A |0-----------|-0-------4-----|-2-----------|------------------|
E |-------0----|---4-3-2-2-----|-------------|--0---------------|


                                                           D7
                                                            ↓ ↑ ↓ ↑
e |-----------------|-----------------|-----------------|---2-2-2-2------|
B |-----------------|-----------------|-----------------|---1-1-1-1------|
G |-----------------|-----------------|-----------------|---2-2-2-2------|
D |-----------------|-----------------|-----------------|----------------|
A |-0-0-------------|-0-0-------------|-3-2-0---3-2-----|----------------|
E |-----2-2-0-0-2-2-|-----2-2-0-0-2-2-|-------2-----0-1-|-2----------0-2-|

 
   A                    F#7        B7   E       A
      ↓ ↑  ↓ ↑           ↓ ↑       ↓ ↑  ↓ ↑     ↓ ↑ ↓            ↓ ↑   ↓ 
e |---5-5--5-5-|---------2-2---|---2-2--0-0-|---5-5-5--------|---5-5---5-|
B |---2-2--2-2-|---------2-2-0-|---0-2--0-0-|---2-2-2--------|---2-2---2-|
G |---2-2--2-2-|---------3-3---|---2-2--1-1-|---2-2-2--------|---2-2---2-|
D |---2-2--2-2 |---------2-2---|---1-1--2-2-|---2-2-2--------|---2-2---2-|
A |-0----------|-0-------4-----|-2----------|-0--------------|-0---------|
E |------0-----|---4-3-2-2-----|-------0----|----------0-2-4-|-------0---|
 
                                                              Walk right..



************************************

 A, E etc   Chord symbols shown to aid fingering
 ↓          Strum down stroke
 ↑          Strum Up stroke

************************************

            
            
Suggest correction
Creating personal tab
Creating personal tab
You can edit any tab online and save it as your Personal.

You can edit, replace or remove any tab part or add personal notes – all changes will be seen only by you.

Personal tabs can be accessed anytime from any device, even offline.
Learn more »
Give kudos to tab author, rate the tab!
1 2 3 4 5
comments
print report bad tab
guest
You may want to rate the tab now too:
select rating
Wanna post a correction for this tab? Suggest correction