Oops, an error
Loading. Please wait.

One Of These Days bass

40 views 6 this week
no commentswrite comment
1 2 3 4 5
3 more votes to show rating
add to favorites
×
Save as Personal and add changes to this tab that will be seen only by you. Learn more ›
×
You can save this tab as Personal to edit and correct it or add notes. All changes will be seen only by you. Learn more »
launch autoscroll
font size
0
reset
guitar tuner
edit
Autoscroll
slow
fast
+/-
esc
set tempo
stop
Author
Difficulty
Tabbed by: 6METAL6BASSIST6
E-mail: petergriffinav@gmail.com

Tuning: EADG

G|----------------------------------------------------------------|
D|2-----------2---2---------------2-----------2---2---------------|
A|----------------------------------------------------------------|
E|----------------------------------------------------------------|

G|----------------------------------------------------------------|
D|2-----------2---2---------------4-----------4---2---------------|
A|----------------------------------------------------------------|
E|----------------------------------------------------------------|

G|----------------------------------------------------------------|
D|----------------------------------------------------------------|
A|5-----------5-------------------5-----------5-----------5-------|
E|----------------5-----------5-------------------5---------------|

G|----------------------------------------------------------------|
D|2-----------2---2---------------4-----------4---2---------------|
A|----------------------------------------------------------------|
E|----------------------------------------------------------------|

G|----------------------------------------------------------------|
D|----------------------------------------------------------------|
A|5-----------5-------------------5-----------5-----------5-------|
E|----------------5-----------5-------------------5---------------|

G|----------------------------------------------------------------|
D|2-----------2---2---------------4-----------4---2-----------2---|
A|----------------------------------------------------------------|
E|----------------------------------------------------------------|

0:20

G|----------------------------------------------------------------|.
D|----------------------------------------------------------------|.
A|5-----------5-------------------5-----------5-----------5-------|.
E|----------------5-----------5-------------------5---------------|.
                                                                   . x2
G|----------------------------------------------------------------|.
D|2-----------2---2---------------4-----------4---2---------------|.
A|----------------------------------------------------------------|.
E|----------------------------------------------------------------|.

G|----------------------------------------------------------------|.
D|----------------------------------------------------------------|.
A|5-----------5-------------------5-----------5-----------5-------|.
E|----------------5-----------5-------------------5---------------|.
                                                                   . x2
G|----------------------------------------------------------------|.
D|2-----------2---2---------------4-----------4---2-----------2---|.
A|----------------------------------------------------------------|.
E|----------------------------------------------------------------|.

G|--------------------------------|
D|2-----------2---4---------------|
A|------------------------4-------|
E|--------------------------------|

0:51

G|----------------------------------------------------------------|
D|----------------------------------------------------------------|
A|2-----------2-------------------2-----------2-----------2-------|
E|----------------2-----------2-------------------2---------------|

G|----------------------------------------------------------------|
D|----------------------------------------------------------------|
A|----------------5---------------2-----------2-------------------|
E|3-----------3-----------2-----------------------2-------2-------|

G|----------------------------------------------------------------|
D|----------------------------------------------------------------|
A|2-----------2-------------------2-----------2-----------2-------|
E|----------------2-----------2-------------------2---------------|

G|----------------------------------------------------------------|
D|----------------------------------------------------------------|
A|----------------5---------------2-----------2---2---------------|
E|3-----------3-----------2---------------------------------------|

1:06

G|----------------------------------------------------------------|
D|4-----------4---4---------------2-----------2---2---------------| x2
A|----------------------------------------------------------------|
E|----------------------------------------------------------------|

G|----------------------------------------------------------------|
D|----------------------------------------------------------------|
A|5-----------5-------------------5-----------5-----------5-------|
E|----------------5-----------5-------------------5---------------|

G|----------------------------------------------------------------|
D|2-----------2---2---------------4-----------4---2---------------|
A|----------------------------------------------------------------|
E|----------------------------------------------------------------|

G|----------------------------------------------------------------|.
D|----------------------------------------------------------------|.
A|5-----------5-------------------5-----------5-----------5-------|.
E|----------------5-----------5-------------------5---------------|.
                                                                   . x2
G|----------------------------------------------------------------|.
D|2-----------2---2---------------4-----------4---2-----------2---|.
A|----------------------------------------------------------------|.
E|----------------------------------------------------------------|.

1:32

G|----------------------------------------------------------------|
D|2---------------------------------------------------------------|
A|------------5-------------------5-----------5-----------5-------|
E|----------------5-----------5-------------------5---------------|

G|----------------------------------------------------------------|
D|2-----------2---2---------------4-----------4---2-----------2---|
A|----------------------------------------------------------------|
E|----------------------------------------------------------------|

G|--------------------------------|
D|2-----------2---4---------------|
A|------------------------4-------|
E|--------------------------------|

1:40

G|----------------------------------------------------------------|
D|----------------------------------------------------------------|
A|2-----------2-------------------2-----------2-----------2-------|
E|----------------2-----------2-------------------2---------------|

G|----------------------------------------------------------------|
D|--------------------------------------------1-----------1-------|
A|----------------5---------------2-------------------------------|
E|3-----------3-----------2---------------------------------------|

G|----------------------------------------------------------------|
D|----------------------------------------------------------------|
A|2-----------2---2---------------2-----------------------2-------|
E|------------------------2-------------------2-------------------|

G|----------------------------------------------------------------|
D|----------------------------------------------------------------|
A|----------------5---------------2-----------2---2---------------|
E|3-----------3-----------2---------------------------------------|

1:54

G|----------------------------------------------------------------|
D|4-----------4---4---------------2-----------2---2---------------| x2
A|----------------------------------------------------------------|
E|----------------------------------------------------------------|

G|----------------------------------------------------------------|
D|----------------------------------------------------------------|
A|5-----------5-------------------5-----------5-----------5-------|
E|----------------5-----------5-------------------5---------------|

G|----------------------------------------------------------------|
D|2-----------2---2---------------4-----------4---2---------------|
A|----------------------------------------------------------------|
E|----------------------------------------------------------------|

G|----------------------------------------------------------------|
D|----------------------------------------------------------------|
A|5-----------5-------------------5-----------5-----------5-------|
E|----------------5-----------5-------------------5---------------|

G|----------------------------------------------------------------|
D|2-----------2---2---------------4-----------4---2-----------2---|
A|----------------------------------------------------------------|
E|----------------------------------------------------------------|

G|--------------------------------|
D|2-----------2---4---------------|
A|------------------------4-------|
E|--------------------------------|

2:16

G|----------------------------------------------------------------|
D|----------------------------------------------------------------|
A|2-----------2-------------------2-----------2-----------2-------|
E|----------------2-----------2-------------------2---------------|

G|----------------------------------------------------------------|
D|--------------------------------------------1-----------1-------|
A|----------------5---------------2-------------------------------|
E|3-----------3-----------2---------------------------------------|

G|----------------------------------------------------------------|
D|----------------------------------------------------------------|
A|2-----------2-------------------2-------------------------------|
E|----------------2-----------2---------------2---2---7---7-\-----|

G|----------------------------------------------------------------|
D|----------------------------------------------------------------|
A|----------------5---------------2-----------2---2---------------|
E|3-----------3-----------2---------------------------------------|

G|----------------------------------------------------------------|
D|4-----------4---4---------------2-----------2---2---------------| x2
A|----------------------------------------------------------------|
E|----------------------------------------------------------------|

G|----------------------------------------------------------------|
D|----------------------------------------------------------------|
A|5-----------5-------------------5-----------5-------------------|
E|----------------5-----------5-------------------5-----------5---|

G|----------------------------------------------------------------|
D|--------------------------------2-------------------------------|
A|5-----------5-----------5---------------------------------------|
E|----------------5-----------------------------------------------|

            
            
Suggest correction
Creating personal tab
Creating personal tab
You can edit any tab online and save it as your Personal.

You can edit, replace or remove any tab part or add personal notes – all changes will be seen only by you.

Personal tabs can be accessed anytime from any device, even offline.
Learn more »
Give kudos to tab author, rate the tab!
1 2 3 4 5
comments
print report bad tab
guest
You may want to rate the tab now too:
select rating
Wanna post a correction for this tab? Suggest correction