Oops, an error
Loading. Please wait.

What They Do intro tab

version 2
version 2

Intro

Whole song

Interactive

775 views 3 this week
no commentswrite comment
1 2 3 4 5
3 more votes to show rating
add to favorites
×
Save as Personal and add changes to this tab that will be seen only by you. Learn more ›
×
You can save this tab as Personal to edit and correct it or add notes. All changes will be seen only by you. Learn more »
launch autoscroll
font size
0
reset
how to read this tab
guitar tuner
edit
Autoscroll
slow
fast
+/-
esc
set tempo
stop
Author
Difficulty
-----------------------------------------------------------------------------
                             What They Do (Intro) - The Roots
-----------------------------------------------------------------------------


A classic old school tune by The Roots.  The intro in this song is one 
of my favorite things to play.  Listen to the song to catch the rhythm.


*I've made some important corrections.  The following tab is now wholly accurate.


Tablature Legend:

h     - hammer-on
p     - pull-off
~     - Vibrato
/     - Slide up
\     - Slide Down
*     - Brief Note


Tuning: Standard

Intro

e-||---8-10-11----9/10--9/10-----------------|
B-||-8-----------10/11-----------------------|
G-||-----------------------------------------|
D-||-----------------------------------------|
A-||-----------------------------------------|
E-||-----------------------------------------|


e-||--------------------------------------------------------------------|
B-||--------------------------------------------------------------------|
G-||-10/12-10/12---12\10p8---------8------------------------------------|
D-||-----------------------10-8h10---10~--------------------------------|
A-||---------------------------------------9p7h9----------7h9-7/9-7~----|
E-||---------------------------------------------10-7--10---------------|


A few barre chords with legato thrown in to spice things up Hendrix style.  Some chord notes stay 
ringing so pay attention!

e-||---------------------------------------------------------------------------------------|
B-||-8h10p8----11h13p11---13h15----------------13-----13-13h16p13--------------------------|
G-||-8---------11---------13-------------------13h15--------------13h15p13-----------------|
D-||-7---------10---------12-------------------13--------------------------13h15-13--------|
A-||---------------------------------------------------------------------------------15----|
E-||---------------------------------------------------------------------------------------|


e-||-----------------------------------------------------------------------------|
B-||-----------------------------------------------------------------------------|
G-||------------------- 15/17-18---17/15-16---15/17--15~------------15-----------|
D-||---------13-15-13---15/17------17/15------15/17--15~------15/17----15/17~----|
A-||-13/15---13-15-13------------------------------------------------------------|
E-||-13/15-----------------------------------------------------------------------|


That's it.  Enjoy!
Suggest correction
Creating personal tab
Creating personal tab
You can edit any tab online and save it as your Personal.

You can edit, replace or remove any tab part or add personal notes – all changes will be seen only by you.

Personal tabs can be accessed anytime from any device, even offline.
Learn more »
Give kudos to tab author, rate the tab!
1 2 3 4 5
comments
print report bad tab
guest
You may want to rate the tab now too:
select rating
Wanna post a correction for this tab? Suggest correction