Oops, an error
Loading. Please wait.

Seresta Tab

10 views 1 this week
no commentswrite comment
1 2 3 4 5
2 more votes to show rating
add to favorites
launch autoscroll
font size
0
reset
how to read this tab
guitar tuner
Autoscroll
slow
fast
+/-
esc
set tempo
stop
Help us to improve Ultimate-Guitar.com Take our survey!
×
Author
Difficulty
intermediate
[I did not figured out the chords yet, so this is just the lead guitar part]

intro
e|-------7-----------7-----------7-----------7-----------7-----------7-----------------0--|
B|-----7---7-------8---8-------7---7-------8---8-------7---7-------8---8-------------0----|
G|---4-------4---8-------8---4-------4---8-------8---4-------4---8-------8---------0------|
D|-5-----------7-----------5-----------7-----------5-----------7-----------------4--------|
A|-----------------------------------------------------------------------------2----------|
E|-------------------------------------------------------------------------0--------------|

main theme and solo (it's hard to say where the first ends and the latter begins, so I'll 
just keep it unseparated)

e|---------------7~--8p7--------------------------------12~-h13p12-11-12-13-12-10-----|
B|-----------------------10-8-7-7h8p7-5-5--h6p5-4-5-6-5---------------------------13--|
G|-4h5p4-3-4-5-4----------------------------------------------------------------------|
D|------------------------------------------------------------------------------------|
A|------------------------------------------------------------------------------------|
E|------------------------------------------------------------------------------------|

e|-----------------------/15--12-14--10-12--7-10--5-7--3-5--------/14-12h14p12-11-12--|
B|-12h13p12~--12p10p9-10------------------------------------5-7~----------------------|
G|------------------------------------------------------------------------------------|
D|------------------------------------------------------------------------------------|
A|------------------------------------------------------------------------------------|
E|------------------------------------------------------------------------------------|

e|-14-\7---5h7p5-4-5-7------------------7~--7-10-8-4h7p4-7-5h7p5---------------------|
B|---------------------7--5h7p5-4-5-7----------------------------7--8--7--6-5h6p5-4--|
G|------------------------------------4----------------------------------------------|
D|-----------------------------------------------------------------------------------|
A|-----------------------------------------------------------------------------------|
E|-----------------------------------------------------------------------------------|

e|--------12~--h13p12-11-12-13-12-10--------------------------------8-7--------------|
B|-5-6-5----------------------------13-12h13p12--------------------------10-8-7h8p7--|
G|-----------------------------------------------------------7-----------------------|
D|-----------------------------------------------7h9p7-6-7-9---10--------------------|
A|-----------------------------------------------------------------------------------|
E|-----------------------------------------------------------------------------------|

e|-----/10~---8-7------------------------8-------------------------------7-7-7----8--|
B|-6-7------------10-8h10p8-7-8-8~-8-8-7---10-7------------------------8-------10----|
G|----------------------------------------------8--------------------9---------------|
D|------------------------------------------------9-7----7---------9-----------------|
A|----------------------------------------------------10---10b12---------------------|
E|-----------------------------------------------------------------------------------|

e|-----------------------------7---------------10--8h10p8-7-----------------------------|
B|-10-7h10p7~-----7-10-10-10-8---8--------9-12--------------10-9------------------------|
G|--------------8------------------9~---9------------------------10-9-7-----------------|
D|------------9-----------------------9---------------------------------10-9-7h9p7-6-7--|
A|--------------------------------------------------------------------------------------|
E|--------------------------------------------------------------------------------------|

e|-----------8-12p8-----------12p8---------------------10-8-7h10p7--------------------|
B|--------10--------10-------------10---------------10-------------8------------8-10--|
G|------9--------------9--------------9-----------9------------------7---7----9-------|
D|-9-10------------------10-7-----------10-7-9-10----------------------9---10---------|
A|------------------------------------------------------------------------------------|
E|------------------------------------------------------------------------------------|

e|-7-7-7----7-----------------------------7-------------------------------------|
B|-------10---10-7h10p7-7---7---7---7---7----/10-10-10-10-7---------------------|
G|------------------------9---9---9---8---------------------8----------------8--|
D|------------------------------------------------------------9-8-7h8p7--8-9----|
A|------------------------------------------------------------------------------|
E|------------------------------------------------------------------------------|

e|-----------------7~-----------10--8h10p8-7--------------------------------------8-12--|
B|-7-10-10-10-10-8---------9-12--------------10-9------------------------------10-------|
G|-----------------------9------------------------10-9-7---------------------9----------|
D|---------------------9---------------------------------10-9-7h9p7-6-7-9-10------------|
A|--------------------------------------------------------------------------------------|
E|--------------------------------------------------------------------------------------|

e|-11/12----------12-15-14-12----------------------------14-12----------------9----------|
B|-------------13-------------15-13-12-13-15-------12-15-------15-13-12-10-12---11-------|
G|-------13h14----------------------------------12---------------------------------11----|
D|-------------------------------------------12------------------------------------------|
A|---------------------------------------------------------------------------------------|
E|---------------------------------------------------------------------------------------|

e|----9-14/11-7-------------------7-12--8p7p6-7-8--8--7-7-5--7p5p4-5-7-7-5-5-5-3-----------|
B|-11-----------7---7-----------8---------------10-10-8-8-7----------8-8-7-7-7-5-----------|
G|----------------8---8-9-9-8-9---------------------------------------------------4-5-7-7--|
D|--------------------------------------------------------------------------------6-7-9-9--|
A|-----------------------------------------------------------------------------------------|
E|-----------------------------------------------------------------------------------------|

e|----------------------------------------------------------------------------------------|
B|---------------------------------------5h7p5-5-8-8-7-7-5h7p5-5-3-3-7-7-5h7p5-5----------|
G|-10-10--9--9--/7-7-7--5-4-7-7\5--4-5-7-----------------------------------------7-7-6-6--|
D|-12-12--10-10-/9-9-9--7-6-9-9\7---------------------------------------------------------|
A|----------------------------------------------------------------------------------------|
E|----------------------------------------------------------------------------------------|

e|-----------------------------8p7p6-7-8--8--7-7-7-8--8----6/7-7--6/7-6/7~----------|
B|-5-5-7-7-5-7-5h7p5--5-5-5-4----------10-10-8-8-8-10-10---7/8-8--7/8-7/8~----------|
G|-------------------------------------------------------------------------4-5-7-7--|
D|-------------------------------------------------------------------------6-7-9-9--|
A|----------------------------------------------------------------------------------|
E|----------------------------------------------------------------------------------|

e|--------------------------------------------------------------------------------------|
B|----------------------------------5h7p5-5-8-8-7-7-5h7p5-5-3-3-7-7-5h7p5-5-/8-8-7h8p7--|
G|-10-10-9--9-/7-7-7-5-4-7\5--4-5-7-----------------------------------------------------|
D|-12-12-10-10/9-9-9-7-6-9\7------------------------------------------------------------|
A|--------------------------------------------------------------------------------------|
E|--------------------------------------------------------------------------------------|

e|----------------11-11-12-7--------------7-8-7------------------------------------7-12--|
B|-7-/11-11-12-12-------------8---------8-------10-8-7---7---7-------------------8-------|
G|-------------------------------9----9----------------9---8---8---------------9---------|
D|----------------------------------9----------------------------9-7---------9-----------|
A|-------------------------------------------------------------------10-7-10-------------|
E|---------------------------------------------------------------------------------------|

e|---------------------------------7-10-8h10p8-----8-----------11-12----------12-15-14-12--|
B|-------------------------------9--------------10-----10------------------13--------------|
G|---------------7-10-9h10p9-8-9---------------------9---------------13h14-----------------|
D|-----------6-9------------------------------------------10~------------------------------|
A|-7h8p7-6-7-------------------------------------------------------------------------------|
E|-----------------------------------------------------------------------------------------|

e|----------------------------14-12----------------9---------------------9-14-14-14-12--|
B|-15-13-12-13-15-------12-15-------15-13-12-10-12---11---------------11----------------|
G|-------------------12---------------------------------11-10-9-10-11-------------------|
D|----------------12--------------------------------------------------------------------|
A|--------------------------------------------------------------------------------------|
E|--------------------------------------------------------------------------------------|

e|-12h13p12-11-12-11h12p11~-------------14-11---------------------------------------|
B|--------------------------13p12p11-12-------13-10---------------------------------|
G|--------------------------------------------------11--------------------------11--|
D|-----------------------------------------------------13-10--------------10-13-----|
A|-----------------------------------------------------------12-9----9-12-----------|
E|----------------------------------------------------------------11----------------|

e|-------11-14-12--10-7------------------------------------------------------------|
B|-10-13----------------8------------------------------------------------------10--|
G|------------------------9~--9-8-9-10-9-7-----------------------------------9-----|
D|-----------------------------------------10-9-7-6h7p6-----------------7-10-------|
A|------------------------------------------------------8-7-5---------7------------|
E|------------------------------------------------------------8-7-5-8--------------|

e|------7-8~-7h8p7-----------------------------------------------------------------5-8--|
B|-9-10------------10-8-7h8p7-6-7-8~-7h8p7---------------------------------------7------|
G|-----------------------------------------9-7\4-4-5h7p5-4---4---------------5-8--------|
D|---------------------------------------------------------7---7-5-4-----4-7------------|
A|-------------------------------------------------------------------7-6----------------|
E|--------------------------------------------------------------------------------------|

e|-7----------------------------8-7----------------------------------12~-h13p12-11-12-13--|
B|---8---------------------12~------10-8-7-7~h8p7-5-5~-5h6p5-4-5-6-5----------------------|
G|-----9----------------------------------------------------------------------------------|
D|-------9-h10p9-8-9-10-9-----------------------------------------------------------------|
A|----------------------------------------------------------------------------------------|
E|----------------------------------------------------------------------------------------|

e|-12-10--------------------------/15--12-14--10-12--7-10---5-7—-3-5-------/14-12h14p12--|
B|-------13-12h13p12~~-12p10p9-10------------------------------------5-7~----------------|
G|---------------------------------------------------------------------------------------|
D|---------------------------------------------------------------------------------------|
A|---------------------------------------------------------------------------------------|
E|---------------------------------------------------------------------------------------|

e|-11-12-14-\7-5h7p5-4-5-7------------------7~~7-10-8-4h7p4-7-5h7p5--------------------|
B|-------------------------7--5h7p5-4-5-7---------------------------7-8-7-6-5h6p5-4-5--|
G|----------------------------------------4--------------------------------------------|
D|-------------------------------------------------------------------------------------|
A|-------------------------------------------------------------------------------------|
E|-------------------------------------------------------------------------------------|

e|-----12~h13p12-11-12-13-12-10-------------------------------8-7----------------/10~-|
B|-6-5--------------------------13-12h13p12~----------------------10-8-7h8p7-6-7------|
G|-------------------------------------------------------7----------------------------|
D|-------------------------------------------7h9p7-6-7-9---10~------------------------|
A|------------------------------------------------------------------------------------|
E|------------------------------------------------------------------------------------|

e|-8-7----------------/15-15-15-14—14-15-14-12h14p12—8p7p6-7-/15~-15-15-14--14-15-14--|
B|-----10-8ph10p8-7-8-----------------------------------------------------------------|
G|------------------------------------------------------------------------------------|
D|------------------------------------------------------------------------------------|
A|------------------------------------------------------------------------------------|
E|------------------------------------------------------------------------------------|



e|-12h14p12--8p7p6-7-/15-15--15-15--14-14--14-14-----12----7--------|
B|-------------------------------------------------------------8----|
G|------------------------------------------------9-----4-----------|
D|-----------------------------------------------------------5---2--|
A|------------------------------------------------------------------|
E|------------------------------------------------------------------|

************************************

| h   Hammer-on
| p   Pull-off
| /   Slide up
| \   Slide down
| ~   Vibrato

************************************
Suggest correction
Give kudos to tab author, rate the tab!
1 2 3 4 5
comments
print report bad tab
guest
You may want to rate the tab now too:
select rating
Wanna post a correction for this tab? Suggest correction