Oops, an error
Loading. Please wait.

Alarm Clock intro tab

557 views 1 this week
3 commentsread comments
1 2 3 4 5
x 3
add to favorites
×
Save as Personal and add changes to this tab that will be seen only by you. Learn more ›
×
You can save this tab as Personal to edit and correct it or add notes. All changes will be seen only by you. Learn more »
launch autoscroll
font size
0
reset
how to read this tab
guitar tuner
edit
Autoscroll
slow
fast
+/-
esc
set tempo
stop
Author
Difficulty
Great song, love the brass element of the band. Here's the tab of the trumpet intro...

e|---------------------------------------------|
B|-7---7---7---7---8---8---8--10---7h8p7-------|
G|---7---7---7---7---7---7----------------7--7-|
D|---------------------------------------------|
A|---------------------------------------------|
E|---------------------------------------------|

e|---------------------------------------------|
B|-8--8--7-------------------------------------|
G|-----------7--7-----9--9--7-------9--7--9--7-|
D|---------------------------------------------|
A|---------------------------------------------|
E|---------------------------------------------|

e|---------------------------------------------|
B|-7---7---7---7---8---8---8--10---7h8p7-------|
G|---7---7---7---7---7---7----------------7--7-|
D|---------------------------------------------|
A|---------------------------------------------|
E|---------------------------------------------|

e|---------------------------------------------|
B|-8--8--7-------------------------------------|
G|-----------7--7-----9--9--7------------------|
D|---------------------------------------------|
A|---------------------------------------------|
E|---------------------------------------------|

...And the song kicks in. I hope to tab and post it soon. Great band!
http://www.therumblestrips.com/

            
            
Suggest correction
Creating personal tab
Creating personal tab
You can edit any tab online and save it as your Personal.

You can edit, replace or remove any tab part or add personal notes – all changes will be seen only by you.

Personal tabs can be accessed anytime from any device, even offline.
Learn more »
Give kudos to tab author, rate the tab!
1 2 3 4 5
comments
print report bad tab
3 comments total.
0 reply
Shaun Mc B 51 Jul 30, 2007 11:56 AM

Think Its In The Wrong Key! MayB An Octave Lower? Not Bad Tho...Gud Effort Tho!

0 reply
Niall_C 16 Oct 08, 2007 05:39 AM

Hey made a little mistake in playing it back for the tab should be two frets up. 9 9 etc... Sorry bout that!

0 reply
Bmm386 650 Feb 21, 2008 08:05 PM

Just totally off.

guest
You may want to rate the tab now too:
select rating
Wanna post a correction for this tab? Suggest correction