Oops, an error
Loading. Please wait.

A Fistful O Roses bass

34 views 15 this week
no commentswrite comment
1 2 3 4 5
3 more votes to show rating
add to favorites
×
Save as Personal and add changes to this tab that will be seen only by you. Learn more ›
×
You can save this tab as Personal to edit and correct it or add notes. All changes will be seen only by you. Learn more »
launch autoscroll
font size
0
reset
guitar tuner
edit
Autoscroll
slow
fast
+/-
esc
set tempo
stop
Artist: The Rumjacks
Song: A Fistful O'Roses
Tuning - Standard
tabbed by electricbunny

[Intro]
G|--------------------------------|--------------------------------|
D|--------------------------------|--------------------------------|
A|--------------------------------|--------------------------------|
E|3-------------------------------|--------------------------------|
 
G|--------------------------------|--------------------------------|
D|--------------------------------|--------------------------------|
A|--------------------------------|--------------------------------|
E|--------------------------------|--------------------------------|
 
G|--------------------------------|--------------------------------|
D|--------------------------------|--------------------------------|
A|--------------------------------|--------------------------------|
E|3-------------------------------|--------------------------------|
 
G|--------------------------------|--------------------------------|
D|----------------0---------------|--------------------------------|
A|--------------------------------|--------------------------------|
E|3-------------------------------|3-------3-------3-------3-------|
 
G|--------------------------------|--------------------------------|
D|--------------------------------|--------------------------------|
A|--------------------------------|3-------------------------------|
E|3---------------3-------------3-|----------------3-------3-------|
 
G|--------------------------------|--------------------------------|
D|--------------------------------|0-------0-----0-0-------0-------|
A|3-------3-----------------------|--------------------------------|
E|----------------3-------3-------|--------------------------------|

G|--------------------------------|--------------------------------|
D|--------------------------------|--------0-----------------------|
A|--------------------------------|3-----3---3---------------------|
E|3-------------3-3-------3-----3-|----------------3-------3-------|
 
G|--------------------------------|--------------------------------|
D|----------------0-------------0-|--------------------------------|
A|--------------------------------|--------------------------------|
E|3-------3-----3-----------------|3---------------3-------3-------|

[Verse] 
G|--------------------------------|--------------------------------|
D|--------------------------------|--------------------------------|
A|--------------------------------|3-------------------------------|
E|3---------------3-------------3-|----------------3-------3-------|
 
G|--------------------------------|--------------------------------|
D|--------------------------------|0-------0-----0-0-------0-------|
A|--------------------------------|--------------------------------|
E|3-------------3-3-------3-------|--------------------------------|
 
G|--------------------------------|--------------------------------|
D|--------------------------------|--------------------------------|
A|--------------------------------|3-------3-----------------------|
E|3-------------3-3-------3-----3-|----------------3-------3-------|
 
G|--------------------------------|--------------------------------|
D|--------------------------------|--------------------------------|
A|--------------------------------|0-------0-----0-----------------|
E|3-------3-----3-3-----3-3-------|----------------3-------3-------|
 
G|--------------------------------|--------------------------------|
D|--------------------------------|--------------------------------|
A|--------------------------------|3-------3-----------------------|
E|3-------------3-3-------3-----3-|----------------3-------3-------|
 
G|--------------------------------|--------------------------------|
D|--------------------------------|0-------0-----0-0-------0-------|
A|--------------------------------|--------------------------------|
E|3-------3-----3-3-------3-------|--------------------------------|
 
G|--------------------------------|--------------------------------|
D|--------------------------------|--------------------------------|
A|--------------------------------|3-------3-----------------------|
E|3-------3-----3-3-------3-----3-|----------------3-------3-------|
 
G|--------------------------------|--------------------------------|
D|--------------------------------|--------------------------------|
A|--------------------------------|0-------0-----------------------|
E|3-------------------------------|----------------3-----3-3-------|

[Chorus] 
G|--------------------------------|--------------------------------|
D|--------------------------------|--------------------------------|
A|--------------------------------|3-------3-----------------------|
E|3-------------3-3-------3-------|----------------3-------3-------|
 
G|--------------------------------|--------------------------------|
D|--------------------------------|0-------0-------0-------0-------|
A|3-------3-----------------------|--------------------------------|
E|----------------3-----3-3-------|--------------------------------|
 
G|--------------------------------|--------------------------------|
D|--------------------------------|--------------------------------|
A|--------------------------------|3-------3-----------------------|
E|3-------3-----3-3-------3-------|----------------3-------3-------|
 
G|--------------------------------|--------------------------------|
D|--------------------------------|--------------------------------|
A|----------------0-------0-------|--------------------------------|
E|3-------3-----------------------|3-------3-------3-------3-------|

[Re-Intro] 
G|--------------------------------|--------------------------------|
D|--------------------------------|--------------------------------|
A|--------------------------------|3-------------------------------|
E|3---------------3-------------3-|----------------3-------3-------|
 
G|--------------------------------|--------------------------------|
D|--------------------------------|0-------0-----0-0-------0-------|
A|3-------3-----------------------|--------------------------------|
E|----------------3-------3-------|--------------------------------|
 
G|--------------------------------|--------------------------------|
D|--------------------------------|--------------------------------|
A|--------------------------------|3-------3-----------------------|
E|3-------------3-3-------3-----3-|----------------3-------3-------|
 
G|--------------------------------|--------------------------------|
D|----------------0-------0-----0-|--------------------------------|
A|--------------------------------|--------------------------------|
E|3-------3-----3-----------------|3-------3-------3-----3-3-------|
 
G|--------------------------------|--------------------------------|
D|--------------------------------|--------------------------------|
A|0-------------------------------|0-------------------------------|
E|------------------------------3-|------------------------------3-|
 
G|--------------------------------|--------------------------------|
D|--------------------------------|--------------------------------|
A|0-------0-------0-------0-------|0-------0-------0-------0-------|
E|--------------------------------|--------------------------------|
 
[Verse]
G|--------------------------------|--------------------------------|
D|--------------------------------|--------------------------------|
A|--------------------------------|3-------------------------------|
E|3---------------3-------------3-|----------------3-------3-------|
 
G|--------------------------------|--------------------------------|
D|--------------------------------|0-------0-----0-0-------0-------|
A|--------------------------------|--------------------------------|
E|3-------------3-3-------3-------|--------------------------------|
 
G|--------------------------------|--------------------------------|
D|--------------------------------|--------------------------------|
A|--------------------------------|3-------3-----------------------|
E|3-------------3-3-------3-----3-|----------------3-------3-------|
 
G|--------------------------------|--------------------------------|
D|----------------0-------0-------|--------------------------------|
A|--------------------------------|--------------------------------|
E|3-------3-----------------------|3-------3-----3-3-------3-------|
 
G|--------------------------------|--------------------------------|
D|--------------------------------|--------------------------------|
A|--------------------------------|3-------3-----------------------|
E|3-------------3-3-------3-----3-|----------------3-------3-------|
 
G|--------------------------------|--------------------------------|
D|--------------------------------|0-------0-----0-0-------0-------|
A|--------------------------------|--------------------------------|
E|3-------3-----3-3-------3-------|--------------------------------|
 
G|--------------------------------|--------------------------------|
D|--------------------------------|--------------------------------|
A|--------------------------------|3-------3-----------------------|
E|3-------3-----3-3-------3-----3-|----------------3-------3-------|
 
G|--------------------------------|--------------------------------|
D|--------------------------------|0-------0-----------------------|
A|--------------------------------|--------------------------------|
E|3-------------------------------|----------------3---------------|

[Chorus] 
G|--------------------------------|--------------------------------|
D|--------------------------------|--------------------------------|
A|--------------------------------|3-------3-----------------------|
E|3-------------3-3-------3-------|----------------3-------3-------|
 
G|--------------------------------|--------------------------------|
D|--------------------------------|0-------0-------0-------0-------|
A|3-------3-----------------------|--------------------------------|
E|----------------3-----3-3-------|--------------------------------|
 
G|--------------------------------|--------------------------------|
D|--------------------------------|--------------------------------|
A|--------------------------------|3-------3-----------------------|
E|3-------3-----3-3-------3-------|----------------3-------3-------|
 
G|--------------------------------|--------------------------------|
D|--------------------------------|--------------------------------|
A|----------------0-------0-------|--------------------------------|
E|3-------3-----------------------|3-------3-------3-------3-------|

[Re-Intro] 
G|--------------------------------|--------------------------------|
D|--------------------------------|--------------------------------|
A|--------------------------------|3-------------------------------|
E|3---------------3-------------3-|----------------3-------3-------|
 
G|--------------------------------|--------------------------------|
D|--------------------------------|0-------0-----0-0-------0-------|
A|3-------3-----------------------|--------------------------------|
E|----------------3-------3-------|--------------------------------|
 
G|--------------------------------|--------------------------------|
D|--------------------------------|--------------------------------|
A|--------------------------------|3-------3-----------------------|
E|3-------------3-3-------3-----3-|----------------3-------3-------|
 
G|--------------------------------|--------------------------------|
D|----------------0-------0-----0-|--------------------------------|
A|--------------------------------|--------------------------------|
E|3-------3-----3-----------------|3-------3-------3-----3-3-------|

[Bridge] 
G|--------------------------------|--------------------------------|
D|--------------------------------|--------------------------------|
A|0-------------------------------|0-------------------------------|
E|------------------------------3-|------------------------------3-|
 
G|--------------------------------|--------------------------------|
D|--------------------------------|--------------------------------|
A|0-------0-------0-------0-------|0-------0-------0-------0-------|
E|--------------------------------|--------------------------------|
 
G|--------------------------------|--------------------------------|
D|--------------------------------|--------------------------------|
A|3-----3-----------------3-----3-|--------0-------3-------3-----3-|
E|----------------3---------------|------------3-------------------|
 
G|--------------------------------|--------------------------------|
D|--------------------------------|--------------------------------|
A|--------3---------------0-------|3-----------------------3-------|
E|0---------------3---------------|----------------3---------------|
 
G|--------------------------------|--------------------------------|
D|--------------------------------|--------------------------------|
A|----------------3---------------|--------3---------------2-------|
E|--------3-----------------------|3---------------3---------------|
 
G|--------------------------------|--------------------------------|
D|--------------------------------|--------------------------------|
A|0-------0-------0-------3-------|----------------0-------0-------|
E|--------------------------------|3-------0-----------------------|
 
G|--------------------------------|--------------------------------|
D|--------------------------------|--------------------------------|
A|0-----------------------0-------|0-------0-------0-------3-------|
E|--------0-------3---------------|--------------------------------|
  
G|--------------------------------|--------------------------------|
D|--------------------------------|--------------------------------|
A|----------------0-------0-------|0-----------------------0-------|
E|3-------0-----------------------|--------0-------3---------------|

[Re-Intro] 
G|--------------------------------|--------------------------------|
D|--------------------------------|--------------------------------|
A|--------------------------------|3-------------------------------|
E|3---------------3-------------3-|----------------3-------3-------|
 
G|--------------------------------|--------------------------------|
D|--------------------------------|0-------0-----0-0-------0-------|
A|3-------3-----------------------|--------------------------------|
E|----------------3-------3-------|--------------------------------|
 
G|--------------------------------|--------------------------------|
D|--------------------------------|--------0-----------------------|
A|--------------------------------|3-----3---3---------------------|
E|3-------------3-3-------3-----3-|----------------3-------3-------|
 
G|--------------------------------|--------------------------------|
D|----------------0-------------0-|--------------------------------|
A|--------------------------------|--------------------------------|
E|3-------3-----3-----------------|3---------------3-------3-------|

[Verse]  
G|--------------------------------|--------------------------------|
D|--------------------------------|--------------------------------|
A|--------------------------------|--------------------------------|
E|3-------------------------------|--------------------------------|
 
G|--------------------------------|--------------------------------|
D|--------------------------------|--------------------------------|
A|--------------------------------|--------------------------------| (x2)
E|--------------------------------|--------------------------------|
 
G|--------------------------------|--------------------------------|
D|--------------------------------|--------------------------------|
A|--------------------------------|0-------0-----0-----------------|
E|--------------------------------|----------------3-------3-------|
 
G|--------------------------------|--------------------------------|
D|--------------------------------|--------------------------------|
A|--------------------------------|3-------3-----------------------|
E|3-------------3-3-------3-----3-|----------------3-------3-------|
 
G|--------------------------------|--------------------------------|
D|--------------------------------|0-------0-----0-0-------0-------|
A|--------------------------------|--------------------------------|
E|3-------3-----3-3-------3-------|--------------------------------|
 
G|--------------------------------|--------------------------------|
D|--------------------------------|--------------------------------|
A|--------------------------------|3-------3-----------------------|
E|3-------3-----3-3-------3-----3-|----------------3-------3-------|
 
G|--------------------------------|--------------------------------|
D|--------------------------------|--------------------------------|
A|--------------------------------|0-------0-----------------------|
E|3-------------------------------|----------------3-----3-3-------|
 
[Chorus]
G|--------------------------------|--------------------------------|
D|--------------------------------|--------------------------------|
A|--------------------------------|3-------3-----------------------|
E|3-------------3-3-------3-------|----------------3-------3-------|
 
G|--------------------------------|--------------------------------|
D|--------------------------------|0-------0-------0-------0-------|
A|3-------3-----------------------|--------------------------------|
E|----------------3-----3-3-------|--------------------------------|
 
G|--------------------------------|--------------------------------|
D|--------------------------------|--------------------------------|
A|--------------------------------|3-------3-----------------------|
E|3-------3-----3-3-------3-------|----------------3-------3-------|
 
G|--------------------------------|--------------------------------|
D|--------------------------------|--------------------------------|
A|----------------0-------0-------|--------------------------------|
E|3-------3-----------------------|3-------3-------3-------3-------|
 
G|--------------------------------|--------------------------------|
D|--------------------------------|--------------------------------|
A|--------------------------------|3-------------------------------|
E|3---------------3-------------3-|----------------3-------3-------|
 
G|--------------------------------|--------------------------------|
D|--------------------------------|0-------0-----0-0-------0-------|
A|3-------3-----------------------|--------------------------------|
E|----------------3-------3-------|--------------------------------|
 
G|--------------------------------|--------------------------------|
D|--------------------------------|--------------------------------|
A|--------------------------------|3-------3-----------------------|
E|3-------------3-3-------3-----3-|----------------3-------3-------|
 
G|--------------------------------|--------------------------------|
D|----------------0-------0-----0-|--------------------------------|
A|--------------------------------|--------------------------------|
E|3-------3-----3-----------------|3-------3-------3-----3-3-------|

[Outro] 
G|--------------------------------|--------------------------------|
D|--------------------------------|--------------------------------|
A|0-------------------------------|0-------------------------------|
E|------------------------------3-|------------------------------3-|
 
G|--------------------------------|--------------------------------|
D|--------------------------------|--------------------------------|
A|0-------0-------0-------0-------|0-------0-------0-------0-------|
E|--------------------------------|--------------------------------|
 
G|--------------------------------|--------------------------------|
D|--------------------------------|--------------------------------|
A|3-----3-----------------3-----3-|--------0-------3-------3-----3-|
E|----------------3---------------|------------3-------------------|
 
G|--------------------------------|--------------------------------|
D|--------------------------------|--------------------------------|
A|--------3---------------0-------|3-----------------------3-------|
E|0---------------3---------------|----------------3---------------|
 
G|--------------------------------|--------------------------------|
D|--------------------------------|--------------------------------|
A|----------------3---------------|--------3---------------2-------|
E|--------3-----------------------|3---------------3---------------|
 
G|--------------------------------|--------------------------------|
D|--------------------------------|--------------------------------|
A|0-------0-------0-------3-------|----------------0-------0-------|
E|--------------------------------|3-------0-----------------------|
 
G|--------------------------------|--------------------------------|
D|--------------------------------|--------------------------------|
A|0-----------------------0-------|0-------0-------0-------3-------|
E|--------0-------3---------------|--------------------------------|
 
G|--------------------------------|--------------------------------|
D|--------------------------------|--------------------------------|
A|----------------0-------0-------|0-----------------------0-------|
E|3-------0-----------------------|--------0-------3---------------|
 
G|--------------------------------|--------------------------------|
D|--------------------------------|--------------------------------|
A|--------0---------------0-------|----------------0-------0-------|
E|3-------------------------------|3-------0-----------------------|
 
G|--------------------------------|--------------------------------|
D|--------------------------------|--------------------------------|
A|0-----------------------0-------|--------0-------0-------0-------|
E|--------0-------3---------------|3-------------------------------|
 
G|--------------------------------|--------------------------------|
D|--------------------------------|--------------------------------|
A|----------------0-------0-------|0-----------------------0-------|
E|3-------0-----------------------|--------0-------3---------------|
 
G|--------------------------------|--------------------------------|
D|--------------------------------|--------------------------------|
A|3-------3---------------3-------|3-------0-------3-------3-------|
E|----------------3---------------|------------3-------------------|
 
G|--------------------------------|--------------------------------|
D|--------------------------------|--------------------------------|
A|--------3---------------0-------|3-------3---------------3-------|
E|3---------------3---------------|----------------3---------------|
 
G|--------------------------------|--------------------------------|
D|--------------------------------|--------------------------------|
A|3---------------3---------------|3---------------0-------3-------|
E|--------3---------------3-------|--------3-----------------------|
 
G|--------------------------------|
D|--------------------------------|
A|0-------------------------------|
E|--------------------------------|

            
            
Suggest correction
Creating personal tab
Creating personal tab
You can edit any tab online and save it as your Personal.

You can edit, replace or remove any tab part or add personal notes – all changes will be seen only by you.

Personal tabs can be accessed anytime from any device, even offline.
Learn more »
Give kudos to tab author, rate the tab!
1 2 3 4 5
comments
print report bad tab
guest
You may want to rate the tab now too:
select rating
Wanna post a correction for this tab? Suggest correction