Oops, an error
Loading. Please wait.

Fallen Down Tab

274 views 1 this week
1 commentread comment
1 2 3 4 5
please rate
add to favorites
launch autoscroll
font size
0
reset
how to read this tab
guitar tuner
Autoscroll
slow
fast
+/-
esc
set tempo
stop
Help us to improve Ultimate-Guitar.com Take our survey!
×
Difficulty
intermediate
Hey guys, my first ever tab, it's ear transcribed, so lets give this a crack...fantastic song!!

Any changes or feedback to warneyisbonkin@hotmail.com ...i'm pretty sure some of the 
are wrong as they are hard to make out in some parts, but hopefully they act as a guide =)

p= pull off
h= hammer-on
/= slide up
\= slide down
b= bend up
r= release bend

Intro:

e|-----------------------------2-2-----------------------------------------|
B|-----------------------------3-3-----------------------------------------|
G|---7-7-----------------------2-2-----------------------------------------|
D|---7-7-----9-9-----7-5-4-----0-0------9-9-----7-7--7-7-7-7--7-7-7-7------|
A|---5-5-0-0-9-9-----7-5-4---------0-0--9-9-----7-7--7-7-7-7--7-7-7-7(etc.)|
E|-----------7-7-0-0-5-3-2--------------7-7-0-0-5-5--5-5-5-5--5-5-5-5------|

Verse:

A
Help me, i've fallen down

i can't get up off the ground,
      F#               E                    D
I've fallen down, i've fallen down, for you

A
Swallow yourself in sweat,

Lend me a hand this time,
   F#                E
i need a friend, to lend a hand,
D
or else i will be stuck here all my life

Chorus

e|-----------------------------2-2-----------------------------------------|
B|-----------------------------3-3-----------------------------------------|
G|---7-7-----------------------2-2-----------------------------------------|
D|---7-7-----9-9-----7-5-4-----0-0------9-9-----7-7--7-7-7-7--7-7-7-7------|
A|---5-5-0-0-9-9-----7-5-4---------0-0--9-9-----7-7--7-7-7-7--7-7-7-7(etc.)|
E|-----------7-7-0-0-5-3-2--------------7-7-0-0-5-5--5-5-5-5--5-5-5-5------|

Verse:

A
I wanna touch the sky,

reach out and get real high,
     F#                    E
i'm stuck in a place, that has no face,
D
Tonight

A
I'm never goin back,

this time i think i'll make new tracks,
   F#                    E
I know a place, where we can stay,

to get away from troubles in our life

Chorus:

(see above)

Bridge/Pre Solo thingy: the 'i've fallen down about a thousand times before, but this 
i can't get up' part..

                                       e|----|
A, G#, F#, E, D,(x2) E (octave higher  B|----| )
                                       G|-9--|
                                       D|-9--|
                                       A|-7--|
                                       E|----|

Solo: [Thru A Major Pentatonic Scale]

(chords in background A, F#, D, E(high), D, C#, B)

   E  D  C# B
e|------------|------------------------------------2-2p0----0|
B|------------|----------------------------------2--------2--|
G|-9--7--6--4-|--2-2-2-2-2-4p2-4p2---------------------------|
D|-9--7--6--4-|--------------------2h4-4-4-4-4---------------|
A|-7--5--4--2-|----------------------------------------------|
E|------------|----------------------------------------------|

e|--2p0---2p0---2p0---2p0---------|-------------------------0-5-4-2------|
B|------2-----2-----2----2-(etc)--|--2-2------------------2---------2----|
G|--------------------------------|------4br-2-2----0-2-4-------------2-2|
D|--------------------------------|--------------------------------------|
A|--------------------------------|--------------------------------------|
E|--------------------------------|--------------------------------------|

e|---------0-5-4b~--0--------9-10-12----10p9h10p9---------|
B|-------2-------------10-12---------12----------10-------|
G|-0-2-4--------------------------------------------------|
D|--------------------------------------------------------|
A|--------------------------------------------------------|
E|--------------------------------------------------------|

Funnish part, kinda quick
e|------7p5---9p5--7p5---9p5--7p5---9p5-(etc.)--9-9\-7-7\-5-5\-4-4-----|
B|----5-----5-----5----5-----5----5------------------------------------|
G|---------------------------------------------------------------------|
D|---------------------------------------------------------------------|
A|---------------------------------------------------------------------|
E|---------------------------------------------------------------------|

e|-2b-2b-0-0--------------------||
B|-2b-2b-0-0--------2-2-0-0-----||
G|------------------------------||
D|------------------------------||
A|------------------------------||
E|------------------------------||

Then into:

Bridge thingy

Chorus

AND THATS IT!!!

yeah thanks for looking at my tab aye, it may not be 100%, but it's better than nothing

R.I.P Dee Hudson
Suggest correction new What's this?
You can suggest a correction to this tab. Community and Mods will review your correction and vote to approve or reject it.
comments
We did not receive enough feedback on this tab! Please rate:
print report bad tab
1 2 3 4 5
1 comment total.
0 reply
deansgirls 11 wrote on January 3 2008, 10:46 pm

hey just so you know the lyrics are "swallow your selfish pride" not "swallow your self in sweat"

guest
You may want to rate the tab now too:
select rating
Please do not post tabs as comments. Select "correction" instead!