Oops, an error
Loading. Please wait.

Ridge Runner Reel Tab

13 views 1 this week
no commentswrite comment
1 2 3 4 5
3 more votes to show rating
add to favorites
launch autoscroll
font size
0
reset
how to read this tab
guitar tuner
Autoscroll
slow
fast
+/-
esc
set tempo
stop
Help us to improve Ultimate-Guitar.com Take our survey!
×
Author
Difficulty
intermediate
About this tab version
I tabbed this all out by ear but if you watch the video you'll see it's pretty close to what he's actually playing. https://www.youtube.com/watch?v=ds0gmPcUIF8. Was this info helpful? Yes No
Legend:

h: hammer on
p: pull off

[Intro]
E|-------------------------------------------------------------------------|     
B|---------------------------------1---------------------------------------|
G|-2h3-3----------------------0-2-0----------------------------------------|
D|------2h3-3-4h5-5--------0h2---------------------------------------------|
A|-----------------4h5-5-3-------------------------------------------------|
E|-------------------------------------------------------------------------|

[First Riff]
E|--------------------------------------------------------------------------|    
B|--------------------------------------------------------------------------|
G|--------------------0-2-0-------------------------0-----------------0-2-0-|
D|-----------0-2-0-2-3------3-2-0---------0---------0--------0-2-0-2-3------|
A|--0-2-3-2-3--------------------3-1-0-1-3--3-1-0-----2-3-2-3---------------|
E|-3---------------------------------------------3--------------------------|

E|--------------------------3--------------------------------------------------|
B|--------------------------3--------------------------------------------------|
G|-----------------------------------------------0-2-0---------------0-2-0-2-3-|
D|-3-2-0--0--0-2-4-2-4-4\5-5-----------0-2-0-2-3--------3-2-0--3-2-3-----------|
A|------3--4-------------------2-3-2-3------------------------3----------------|
E|-----------------------------------------------------------------------------|

E|------------------8-------------------------------------------------------|
B|-1-3-1-----5-6-7\8---8-7-6-------8-7-6-5------------1---------------------|
G|-------3-2----------------7-8-5--9-8-7-5------------0---------------------|
D|---------------------------------------5-5h7-5----------------------------|
A|----------------------------------------------7//3------------------------|
E|--------------------------------------------------------------------------|

E|-------------------------------------------------------------------------|     
B|---------------------------------1---------------------------------------|
G|-2h3-3----------------------0-2-0----------------------------------------|
D|------2h3-3-4h5-5--------0h2---------------------------------------------|
A|-----------------4h5-5-3-------------------------------------------------|
E|-------------------------------------------------------------------------|

[Second Riff]
E|----------------------------------------------------------------------------------------------|
B|---------------1------------------------1---------------------------------------------------1-|
G|-------x-x-----0-------------0--0-0-0-0---3p2-3p2-0--0--5-5p3-5-5p3-5-3-5-3-5-3---------------|
D|-------x-x-0h2----2h3-3p2-0------------------------3----------------------------5-4-3-1-3-----|
A|--0-2-3-3-----------------1-3-------------------------------------------------------------3---|
E|-3--------------------------------------------------------------------------------------------|

E|-------------------------------------------------------------------------|
B|---------------------------------1---------------------------------------|
G|-------------------0-2h3-2p0---------------------------------------------|
D|----------------0h2------------------------------------------------------|
A|-3--3-3--3--3-3--------------1-3-----------------------------------------|
E|-------------------------------------------------------------------------|

E|-------------------------------------------------------------------------|     
B|---------------------------------1---------------------------------------|
G|-2h3-3----------------------0-2-0----------------------------------------|
D|------2h3-3-4h5-5--------0h2---------------------------------------------|
A|-----------------4h5-5-3-------------------------------------------------|
E|-------------------------------------------------------------------------|
Suggest correction
Give kudos to tab author, rate the tab!
1 2 3 4 5
comments
print report bad tab
guest
You may want to rate the tab now too:
select rating
Wanna post a correction for this tab? Suggest correction