Oops, an error
Loading. Please wait.

How To Evade Your Obsessive Shadow Tab

1,133 views 1 this week
no commentswrite comment
1 2 3 4 5
x 4
add to favorites
launch autoscroll
font size
0
reset
how to read this tab
guitar tuner
Autoscroll
slow
fast
+/-
esc
set tempo
stop
Help us to improve Ultimate-Guitar.com Take our survey!
×
Author
______________________________________
"How to Evade Your Obsessive Shadow"
on the album "Goodbye Melody Mountain"
by the Samuel Jackson Five
______________________________________

~ Hear this song at: 	http://www.youtube.com/watch?v=VXDs7KkiwU0

~ Official website:	http://www.sj5.no/index_en.html
			http://www.myspace.com/thesamueljacksonfive

~ tabbed by Quadr4phonic
  2010

~ tuning: EADGBe (standard)

~ (/) Slide Up  (\) Slide Down  (h) Hammer On  (p) Pull Off  (b) Bend (r) Release (v) 
(~) Let Ring

~ NOTE: All track times listed are accurate to the CD versions of each track, internet 
may or may not line up properly.

Enjoy!

*   *   *   *   *   *   *   *   *

PART I

	INTRO
E|---------------5-------------|
B|--8p5--5--8p5-----8p5-----5--|
G|-----------------------7-----|
D|-----------------------------|
A|-----------------------------|
E|-----------------------------|


	RIFF I (00:26)
E|----------------|-----------------|
B|--5--7--8--8--8-|-7--8--10--8--5--|
G|----------------|-----------------|
D|--2--4--5--5--5-|-4--5--7---5--2--|
A|----------------|-----------------|
E|----------------|-----------------|


	RIFF II (01:22)
E|--------------2h3p2-------------------------------------|
B|---------------------0---------5\3/5--------------------|
G|-----------4------------2/4\2---------2--4--5--4--------|
D|--2--4--5-----------------------------------------5--4--|
A|--------------------------------------------------------|
E|--------------------------------------------------------|


	RIFF III (01:44)
E|-----------------|----------------------|
B|-----------------|-------------------5\-|
G|--2--------------|-2--------4b5r4\2-----|
D|--0--2--2--4/5\2-|-0--2-----------------|
A|-----------------|-------3--------------|
E|-----0-----------|----0-----------------|


	RIFF IV (02:50)
E|-------------------------------------|-----------------------------------|
B|----------3--0--1v--7b8r7/8--5v------|---------3--0--1v------------------|
G|-------------------------------------|-------------------4h5p4-----------|
D|--2v--4v-------------------------2h4-|-2v--4v-------------------5--2--4--|
A|-------------------------------------|-----------------------------------|
E|-------------------------------------|-----------------------------------|

*   *   *   *   *   *   *   *   *

PART II


	CHORD PROGRESSION (PALM MUTED) (03:38)
E|--------------|--------------|--------------|------------------------------|
B|--------------|--------------|--------------|------------------------------|
G|--------------|--------------|--------------|------------------------------|
D|--------------|--------------|--------------|------------------------------|
A|--2--2--2--2--|--2--2--2--2--|--2--2--2--2--|--2--2--2--2------------------|
E|--0--0--0--0--|--0--0--0--0--|--0--0--0--0--|--0--0--0--0------------------|

E|------------------|------------------|------------------|------------------|
B|------------------|------------------|------------------|------------------|
G|------------------|------------------|------------------|------------------|
D|------------------|------------------|------------------|------------------|
A|--10--10--10--10--|--10--10--10--10--|--10--10--10--10--|--10--10--10--10--|
E|--8---8---8---8---|--8---8---8---8---|--8---8---8---8---|--8---8---8---8---|


	RIFF V (04:38)
E|------------------------|
B|------------------------|
G|------------------------|
D|--12~--10~--9~--5/7-----|
A|--------------------7~--|
E|------------------------|


	RIFF VI (05:24)
E|-------------------------|
B|--15\12v--15\7v--7/8/12--|
G|-------------------------|
D|-------------------------|
A|-------------------------|
E|-------------------------|


	RIFF VII (06:03)
E|---------------------------------------------------|---------------------------------------|
B|--3h5p3--0h3p0------------------------3------------|--3--3--3--3--3--3--3--3--3p0----------|
G|----------------2h4p2-----------2--4-----4p2-------|-------------------------------2p0-----|
D|-----------------------2--2--5----------------5p2--|------------------------------------2--|
A|---------------------------------------------------|---------------------------------------|
E|---------------------------------------------------|---------------------------------------|

E|------------------------------------|
B|------------------------------------|
G|--4--4--4--4--4--4--4--4--4p2p0-----|
D|---------------------------------2--|
A|------------------------------------|
E|------------------------------------|
Suggest correction
comments
print report bad tab
guest
You may want to rate the tab now too:
select rating
Wanna post a correction for this tab? Suggest correction