Oops, an error
Loading. Please wait.

The Green And Red Of Mayo Tab

12,236 views 18 this week
no commentswrite comment
1 2 3 4 5
x 7
add to favorites
launch autoscroll
font size
0
reset
how to read this tab
guitar tuner
×
Best way to learn
"The Green And Red Of Mayo"
Autoscroll
slow
fast
+/-
esc
set tempo
stop
Author
Standard tuning
G=320033
C=x35553 (this sounds better than x32010)
Strum pattern (acoustic)

[Verse 1]
N.C.
Oh the green and red of mayo, 
N.C.
I can see it still,
N.C.
It's soft and craggy boglands,
N.C. 
It's tall magestic hills,
G
Where the ocean kisses Ireland, 
C
The waves caress it's shore
G
The feelin' it came over me, 
C
To stay for ever more, 
G
For ever more,

[Fill 1]
 C                   |G                   |C                   |
 1    2    3    4    |1    2    3    4    |1    2    3    4    |
 (electric fill 1, lots of echo:)
e|--------------------|--------------------|-------------------|
B|---------------7-9--|9p7-----------------|-------------------|
G|--------------------|---------------8----|9~~~~~~~~~~~~~-----|
D|--------------------|--------------------|-------------------|
A|--------------------|--------------------|-------------------|
E|--------------------|--------------------|-------------------|

[Verse 2]
          G
From it's rolling costal waters 
      C
I can see Croagh Patrick's peak, 
          G
where one sunday every summer, 
    C
the pilgrims climb the reek 
          G
where St. Patrick in it's solitude, 
      C
looks out across Clew bay,
             G
and with the ringin' of his bell
           C
Called the faithful there to pray,
         G
there to pray,

[Fill 2]
 G
 pray
 1    2    3    4    |1    2    3    4    |
e|7~~~~~~~~~~~~-9-7--|--------------------|
B|-------------------|8-6-----------------|
G|-------------------|---9----------------|
D|-------------------|--------------------|
A|-------------------|--------------------|
E|-------------------|--------------------|

[Fill 1]
 C                   |G                   |C                   |
 1    2    3    4    |1    2    3    4    |1    2    3    4    |
 (electric fill 1, lots of echo:)
e|--------------------|--------------------|-------------------|
B|---------------7-9--|9p7-----------------|-------------------|
G|--------------------|---------------8----|9~~~~~~~~~~~~~-----|
D|--------------------|--------------------|-------------------|
A|--------------------|--------------------|-------------------|
E|--------------------|--------------------|-------------------|

[Fill 3]
 1    2    3    4    |1    2    3    4    |
e|7~~~~-12----7---9~~|~~~~~~~-------------|
B|-------------------|--------------------|
G|-------------------|--------------------|
D|-------------------|--------------------|
A|-------------------|--------------------|
E|-------------------|--------------------|

[Fill 1]
 C                   |G                   |C                   |
 1    2    3    4    |1    2    3    4    |1    2    3    4    |
 (electric fill 1, lots of echo:)
e|--------------------|--------------------|-------------------|
B|---------------7-9--|9p7-----------------|-------------------|
G|--------------------|---------------8----|9~~~~~~~~~~~~~-----|
D|--------------------|--------------------|-------------------|
A|--------------------|--------------------|-------------------|
E|--------------------|--------------------|-------------------|

[Verse 3]
(Chords as verse 2)
Take me to Clare island, 
The home of Granuaile,
It's waters harbour fishes,
From the herring to the whale,
And now I must depart it,
And reality is plain,
May the time not pass so slowly,
Till I set sail again,
Set sail again,

[Fill 2]
 G
 pray
 1    2    3    4    |1    2    3    4    |
e|7~~~~~~~~~~~~-9-7--|--------------------|
B|-------------------|8-6-----------------|
G|-------------------|---9----------------|
D|-------------------|--------------------|
A|-------------------|--------------------|
E|-------------------|--------------------|

[Fill 1]
 C                   |G                   |C                   |
 1    2    3    4    |1    2    3    4    |1    2    3    4    |
 (electric fill 1, lots of echo:)
e|--------------------|--------------------|-------------------|
B|---------------7-9--|9p7-----------------|-------------------|
G|--------------------|---------------8----|9~~~~~~~~~~~~~-----|
D|--------------------|--------------------|-------------------|
A|--------------------|--------------------|-------------------|
E|--------------------|--------------------|-------------------|

[Fill 3]
 1    2    3    4    |1    2    3    4    |
e|7~~~~-12----7---9~~|~~~~~~~-------------|
B|-------------------|--------------------|
G|-------------------|--------------------|
D|-------------------|--------------------|
A|-------------------|--------------------|
E|-------------------|--------------------|

[Fill 1]
 C                   |G                   |C                   |
 1    2    3    4    |1    2    3    4    |1    2    3    4    |
 (electric fill 1, lots of echo:)
e|--------------------|--------------------|-------------------|
B|---------------7-9--|9p7-----------------|-------------------|
G|--------------------|---------------8----|9~~~~~~~~~~~~~-----|
D|--------------------|--------------------|-------------------|
A|--------------------|--------------------|-------------------|
E|--------------------|--------------------|-------------------|

[Verse 4]
Oh the green and red of mayo, 
I can see it still,
It's soft and craggy boglands,. 
It's tall magestic hills,
Where the ocean kisses Ireland, 
The waves caress it's shore
The feelin' it came over me, 
To stay for ever more, 
For ever more,

[Fill 2] (x2)
 G
 pray
 1    2    3    4    |1    2    3    4    |
e|7~~~~~~~~~~~~-9-7--|--------------------|
B|-------------------|8-6-----------------|
G|-------------------|---9----------------|
D|-------------------|--------------------|
A|-------------------|--------------------|
E|-------------------|--------------------|


************************************

| p  Pull-off
| ~  Vibrato

************************************
Suggest correction
comments
print report bad tab
guest
You may want to rate the tab now too:
select rating
Wanna post a correction for this tab? Suggest correction