Oops, an error
Loading. Please wait.

Alamo Is No Place For Dancing tab

version 1
version 1

Whole song

27,292 views 3 this week
3 commentsread comments
1 2 3 4 5
x 4
add to favorites
×
Save as Personal and add changes to this tab that will be seen only by you. Learn more ›
×
You can save this tab as Personal to edit and correct it or add notes. All changes will be seen only by you. Learn more »
launch autoscroll
font size
0
reset
how to read this tab
guitar tuner
edit
Autoscroll
slow
fast
+/-
esc
set tempo
stop
Author
Difficulty
-----------------------------------------------
   "The Alamo is no Place for Dancing" - 
            The Scene Aesthetic

 http://www.purevolume.com/thesceneaesthetic
-----------------------------------------------
Tabbed by: Justin RiRaY
Email: Pakman7JR@hotmail.com     AIM: BeatPwner

Tuning: eBGDAE

     INTRO
 
e|----------------|
B|----3-3---3-----|
G|----------0h2---|
D|---0-0-0-----0--| X 3
A|----------------|
E|--2------3------|
 
e|-----------------------|
B|--3p2---3p2---3p2---2--|
G|-----2-----2-----2--2--|
D|------0-----0-----0-0--|
A|--------------------0--|
E|-----------------------|


    VERSE

e|--0-0>-----0>---0>---|
B|--3-3>-----3>---3>---|
G|--2-2>-----2>---2>---|
D|--0-0>-----0>---0>---|
A|--0-2>-----0>---0>---|
E|-----------2>---3>---|


     Pre-CHORUS
 
e|-------------------|
B|--3>----3>----3>---|
G|--2>----2>----2>---|
D|--0>----0>----0>---|
A|--2>----0>----0>---|
E|--0>----2>----3>---|


     CHORUS
 
e|-------------------------|
B|--------------3>-3>--3>--|
G|--7>--7>--4>--2>-2>--2>--|
D|--7>--7>--5>--0>-0>--0>--|
A|--5>--x>--5>--2>-0>--0>--|
E|--5>--7>--3>--0>-2>--3>--|


     BRIDGE

e|----------0>-------------0>---------|
B|----------0>-------------0>--3>-3>--|
G|--4>--6>--0>-----4>--6>--0>--2>-2>--|
D|--5>--7>--2>-----5>--7>--2>--0>-0>--|
A|--5>--7>--2>-----5>--7>--2>--0>-0>--|
E|--3>--5>--0>-----3>--5>--0>--2>-3>--|


     Pre-BRIDGE (live solo only)
 
e|-------0--0---------0--------0--0------0-|
B|----3---3--3------3--3-3-3-3--3--3-3-3-3-|
G|-----2---2--2------2--2-2---2--2--2--2-2-|
D|------------------------0------------0-0-|
A|-------------------------------------0-0-|
E|--3-----------3-2--------------------2-2-|

     OUTRO
 
e|------------------|
B|--3>--3>--3>--3>--|
G|--2>--2>--2>--2>--|
D|--0>--0>--0>--0>--|
A|--0>--0>--2>--0>--|
E|--3>--2>------2>--|

            
            
Suggest correction
Creating personal tab
Creating personal tab
You can edit any tab online and save it as your Personal.

You can edit, replace or remove any tab part or add personal notes – all changes will be seen only by you.

Personal tabs can be accessed anytime from any device, even offline.
Learn more »
comments
print report bad tab
3 comments total.
0 reply
Scottydog726 10 Mar 26, 2006 05:39 PM

the strings don't snap if you tune them up?

0 reply
Tomothepro 149 Jul 24, 2006 12:41 PM

no ive tuned it up many times
if u tune it up than tune it down to fast they snap tho

0 reply
murtymurtmurt11 10 Jul 26, 2006 09:44 AM

on the first verse instead of 000230 and 020230, you can also play 7x77x0...that's how Andrew does it...anyways. real good tab, thanks man.

guest
You may want to rate the tab now too:
select rating
Wanna post a correction for this tab? Suggest correction