Oops, an error
Loading. Please wait.

Beauty In The Breakdown Tab

version 1
version 1

Whole song

105,524 views 54 this week
7 commentsread comments
1 2 3 4 5
accurate
x 8
add to favorites
launch autoscroll
font size
0
reset
how to read this tab
guitar tuner
Tab Pro tools
  • play this tab
  • loop segment
  • change instrument
  • show fretboard
  • metronome
×
Best way to learn
"Beauty In The Breakdown"
Autoscroll
slow
fast
+/-
esc
set tempo
stop
Contributor
Difficulty
novice
-------------------------------------------------
 "Beauty in the Breakdown - The Scene Aesthetic
-------------------------------------------------
Tabbed by: Justin RiRaY
Email: Pakman7JR@hotmail.com       AIM: BeatPwner

     Here's the 2nd guitar everyone's been waitin
for. It may be a little off... but its fine.

Tuning: eBGDAE

          *** GUITAR 1 ***

     INTRO
 
e|----------------------0--3---------0-----|
B|----------------------1--1---------0--0--|
G|------0---------------0--0-----0---0--0--|
D|--0-h2-2-0h2p0--------2--2--0h2-2--2--0--|
A|---------------3-2-3--3--3---------2--2--|
E|----------------------0--0---------0--3--|
 
e|--------0--3---------0-------------------|
B|--------1--1---------0--0----------------|
G|--------0--0-----0---0--0----------------|
D|-0h2----2--2--0h2-2--2--0----------------|
A|----3-2-3--3---------2--2----------------|
E|--------0--0---------0--3----------------|


     VERSE         Post-VERSE

e|--0---0--3--|  e|--3--3--3--|
B|--1---0--0--|  B|--x--x--3--|
G|--0---0--0--|  G|--2--4--4--|
D|--2---2--2--|  D|--2--4--5--|
A|--3---2--3--|  A|--0--2--3--|
E|--0---0--0--|  E|-----------|


     CHORUS

e|--3--0--3--0--0--3---|
B|--3--1--3--1--0--3---|
G|--0--0--0--0--0--0---|
D|--0--2--0--2--2--0---|
A|--2--3--2--3--2--2---|
E|--3--0--3--0--0--3---|


     BRIDGE

e|--3--0--3--0---|
B|--3--1--3--1---|
G|--0--0--0--0---|
D|--0--2--0--2---|
A|--2--3--2--3---|
E|--3--0--3--0---|


          *** GUITAR 2 ***

     INTRO

e|--0---3--------------10---|
B|--1--------10\8-8\7-------|
G|--0-------------7---------|
D|--------------------------|
A|--------------------------|
E|--------------------------|
 
e|--3-----------------------|
B|--3------7h8-8-7h8-8------|
G|--0------------------7b---|
D|--------------------------|
A|--------------------------|
E|--------------------------|


     Pre-CHORUS

e|-------------------------------7--|
B|--3/8-8/10-12---3/8-8/10-12-------|
G|-----------------------------7----|
D|----------------------------------|
A|----------------------------------|
E|----------------------------------|

     If there is 2nd Guitar in the Chorus
it is too indistinct for me to hear it.
But it sounds find with just guitar 1.

     BRIDGE (2nd part)

e|--------------------------10--|
B|--7p5-5p4--7p5-5p4-------10---|
G|-------------------------7----|
D|------------------------------|
A|------------------------------|
E|------------------------------|

e|--5h7-7-7--10-7-8-7-10-7-8-7--|
B|--8-8-8-8--8--8-8-8-8--8-8-8--|
G|------------------------------|
D|------------------------------|
A|------------------------------|
E|------------------------------|
 
e|--5h7-7-7--8-8-8-8-8-8-8-8-8--|
B|--8-8-8-8--8-8-8-8-8-8-8-8-8--|
G|------------------------------|
D|------------------------------|
A|------------------------------|
E|------------------------------|

e|--5h7-7-7--10-7-8-7-10-7-8-7--|
B|--8-8-8-8--8--8-8-8-8--8-8-8--|
G|------------------------------|
D|------------------------------|
A|------------------------------|
E|------------------------------|
 
e|--5h7-7-7--8---|
B|--8-8-8-8--8---|
G|---------------|
D|---------------|
A|---------------|
E|---------------|
comments
print report bad tab
7 comments total. Showing first comments.
0 reply
seanfromlj wrote on December 3 2005, 09:55 am

this is a great song. thanks for the tab

0 reply
CrazyYaz wrote on August 9 2006, 12:57 pm

2nd guitar doesnt sounds right...

0 reply
CrazyYaz wrote on August 9 2006, 12:58 pm

not accurate

I want to post or [tab]
guest
You may want to rate the tab now too:
select rating
Please do not post tabs as comments. Select "correction" instead!