Oops, an error
Loading. Please wait.

Dear Time Traveler intro tab

version 1
version 1

Intro

Whole song

6,405 views 1 this week
4 commentsread comments
1 2 3 4 5
x 5
add to favorites
×
Save as Personal and add changes to this tab that will be seen only by you. Learn more ›
×
You can save this tab as Personal to edit and correct it or add notes. All changes will be seen only by you. Learn more »
launch autoscroll
font size
0
reset
how to read this tab
guitar tuner
edit
Autoscroll
slow
fast
+/-
esc
set tempo
stop
Author
Difficulty
Title: "Dear Time Traveler"
Artist: The Scene Aesthetic
Album: Building Homes From What We've Known


Note: This is only one of the guitars. I can't figure out the other guitar stuff yet.

e|----------------------------|---------4-2-----------4-2--|
B|---4-4h5-7-5-----4-4h5-7-5--|---4-4h5-----5---4-4h5-----5|
G|--4-4--------4--4-4--------4|--4-4-----------4-4---------|
D|----------------------------|----------------------------|
A|-0-------------0------------|----------------------------|
E|----------------------------|-0-------------0------------|

e|----------------------------|---------4-2----4~-|
B|---4-4h5-7-5-----4-4h5-7-5--|---4-4h5-----5--5~-|
G|--4-4--------4--4-4--------4|--4-4-----------4~-|
D|----------------------------|-------------------|
A|-0-------------0------------|-------------------|
E|----------------------------|-0-----------------|

This is my best attempt. I think there's probably an easier way to play it but yeah this 
what I got for now.

-Philly F.

            
            
Suggest correction
Creating personal tab
Creating personal tab
You can edit any tab online and save it as your Personal.

You can edit, replace or remove any tab part or add personal notes – all changes will be seen only by you.

Personal tabs can be accessed anytime from any device, even offline.
Learn more »
comments
print report bad tab
4 comments total. Showing first comments.
-1 reply
xXtypical_emoXx 31 Jun 15, 2008 09:36 AM

you fail
tis much different

jk pretty good but they play it like:


e|-----------------------|------------------------|
B|---8-8h9-11-9----------|---9-9h11-13-11-9-------|
G|--9-9---------9--------|--9-9-------------------| (x2)
D|-----------------(x2)--|-------------------(X2)-|
A|-0---------------------|------------------------|
E|-----------------------|-0----------------------|

-1 reply
fast-lagardo 10 Mar 15, 2009 12:07 PM

no you fail that sounds like ass, good tab man.

0 reply
rookieboarder24 98 Jul 14, 2009 12:50 PM

i think its perfect.

guest
You may want to rate the tab now too:
select rating
Wanna post a correction for this tab? Suggest correction