Oops, an error
Loading. Please wait.

Yellow Birds Coal Mines tab

version 1
version 1

Whole song

21,577 views 1 this week
7 commentsread comments
1 2 3 4 5
x 16
add to favorites
×
Save as Personal and add changes to this tab that will be seen only by you. Learn more ›
×
You can save this tab as Personal to edit and correct it or add notes. All changes will be seen only by you. Learn more »
launch autoscroll
font size
0
reset
how to read this tab
guitar tuner
edit
Autoscroll
slow
fast
+/-
esc
set tempo
stop
Author
Difficulty
Yellow Birds & Coal Mines
by The scene aesthetic (Whole song)
it might not be totally perfect but its pretty nice i think
listen to the song to figure out the strumming pattern and how the song goes

h=hammer on
p=pull off
b= bend
r=bend release

Intro:X2
Guitar 1:
e|---3-3-3-3-3-3-3-3-3-3-----------3--|
B|---3-3-3p0-3p0-3-3-3-3p0---------3--|
G|---0-0-0-0-0-0-0-0-0-0-0-0-2p0-0-0--|
D|---2-2-2-2-2-2-2-2-2-2-2-2-0-0-2-2--|
A|-3-3-3-3-3-3-3-3-3-3-3-3-3-3-3-3-3--|
E|------------------------------------|

X 2
e|---3-3-3-3----3-3---3-3----|
B|---3-3-3-3----3-3---3-3----|
G|---0-0-0-0----0-0---0-0----|
D|---0-0-0-0----0-0---2-2----|
A|---2-2-2-2----x-x---2-2----|
E|-3-3-3-3-3--2-2-2-0-0-0----|

Guitar 2: (comes in after playing the introthe first time)
e|--------------------------10------------------|
B|-----8--10b-r10-8-8-----10b--r10--8-10--8-----|
G|-7-9------------------------------------------|
D|----------------------------------------------|
A|----------------------------------------------|
E|----------------------------------------------|
when you bend hold the bend and play the 10on the e string then bring the bend back down
e|----------------------------------------------|
B|-----8----8----8-----8----8----------------8--|
G|--7h9--7h9--7h9---7h9--7h9---7h9p7----7-9-----|
D|------------------------------------9---------|
A|----------------------------------------------|
E|----------------------------------------------|

Verse:part one X2
e|---3----3---|
B|---3----3---|
G|---0----0---|
D|---2----2---|
A|-3-3--3-3---|
E|------------|

x 2
e|---3-3-3-3----3-3---3-3----|
B|---3-3-3-3----3-3---3-3----|
G|---0-0-0-0----0-0---0-0----|
D|---0-0-0-0----0-0---2-2----|
A|---2-2-2-2----x-x---2-2----|
E|-3-3-3-3-3--2-2-2-0-0-0----|

Verse: part two X2

e|---3-3-3-3-3-3-3-3-3-3-----------3--|
B|---3-3-3p0-3p0-3-3-3-3p0---------3--|
G|---0-0-0-0-0-0-0-0-0-0-0-0-2p0-0-0--|
D|---2-2-2-2-2-2-2-2-2-2-2-2-0-0-2-2--|
A|-3-3-3-3-3-3-3-3-3-3-3-3-3-3-3-3-3--|
E|------------------------------------|

X 2
e|---3-3-3-3----3-3---3-3----|
B|---3-3-3-3----3-3---3-3----|
G|---0-0-0-0----0-0---0-0----|
D|---0-0-0-0----0-0---2-2----|
A|---2-2-2-2----x-x---2-2----|
E|-3-3-3-3-3--2-2-2-0-0-0----|

pre chorus: we saw this coming....
e|-3---3---|
B|-3---3---|
G|-0---0---|
D|-2---2---|
A|-2---3---|
E|-0-------|


Chorus:
(listen to the song for the strumming pattern these are just the chords)
X2
e|-2-----3--3--|
B|-3--8--3--3--|
G|-0--0--0--0--|
D|-0--5--0--2--|
A|-3--7--2--3--|
E|-------3-----|

After chorus:X2
e|---3-3-3-3-3-3-3-3-3-3-----------3--|
B|---3-3-3p0-3p0-3-3-3-3p0---------3--|
G|---0-0-0-0-0-0-0-0-0-0-0-0-2p0-0-0--|
D|---2-2-2-2-2-2-2-2-2-2-2-2-0-0-2-2--|
A|-3-3-3-3-3-3-3-3-3-3-3-3-3-3-3-3-3--|
E|------------------------------------|

X 2
e|---3-3-3-3----3-3---3-3----|
B|---3-3-3-3----3-3---3-3----|
G|---0-0-0-0----0-0---0-0----|
D|---0-0-0-0----0-0---2-2----|
A|---2-2-2-2----x-x---2-2----|
E|-3-3-3-3-3--2-2-2-0-0-0----|

Verse 2:X2
(the chords dont ring out for this verse. listen to the song for the sturmming pattern)

e|---3----3---|
B|---3----3---|
G|---0----0---|
D|---2----2---|
A|-3-3--3-3---|
E|------------|

X 2
e|---3-3-3-3----3-3---3-3----|
B|---3-3-3-3----3-3---3-3----|
G|---0-0-0-0----0-0---0-0----|
D|---0-0-0-0----0-0---2-2----|
A|---2-2-2-2----x-x---2-2----|
E|-3-3-3-3-3--2-2-2-0-0-0----|

pre chorus:
"just leave it alone"
e|---3----3---|
B|---3----3---|
G|---0----0---|
D|---2----2---|
A|---3----3---|
E|------------|

Chorus:
(listen to the song for the strumming pattern these are just the chords)
X2
e|-2-----3--3--|
B|-3--8--3--3--|
G|-0--0--0--0--|
D|-0--5--0--2--|
A|-3--7--2--3--|
E|-------3-----|

Bridge:(the ugly sloppy part of the song not even bothering to tab it all cause its so 
but um just play these chords
and fool around with the picking. its not hard
X4
e|-2-3----3---|
B|-3-3-8--3---|
G|-0-0-0--0---|
D|-0-0-5--0---|
A|-3-3-7--2---|
E|--------3---|

thanks for being here my friend...
X 4
e|-3-3-------|
B|-3-3--7-8--|
G|-0-0--0-0--|
D|-2-0--5-5--|
A|-3-2--7-7--|
E|-----------|

X2(same thing only let the chords ring out, dont strum)
e|-3-3-------|
B|-3-3--7-8--|
G|-0-0--0-0--|
D|-2-0--5-5--|
A|-3-2--7-7--|
E|-----------|

outro:keep me here.....
e|-2-----3--0--|
B|-3--8--3--3--|
G|-0--0--0--0--|
D|-0--5--0--2--|
A|-3--7--2--3--|
E|-------3-----|
             let ring..... and thats it.
Suggest correction
Creating personal tab
Creating personal tab
You can edit any tab online and save it as your Personal.

You can edit, replace or remove any tab part or add personal notes – all changes will be seen only by you.

Personal tabs can be accessed anytime from any device, even offline.
Learn more »
comments
print report bad tab
7 comments total. Showing first comments.
-1 reply
I suck bad 41 Jul 22, 2006 10:51 PM

perfect tab man

+1 reply
watchtheworldtd 31 Aug 12, 2006 06:21 PM

.. i like how you comment your own tab saying how it's perfect.

it's good. i think you could have put effort into the bridge cause that's harder then the intro to figure out.

and this is definetly a novice tab lol.

+1 reply
mistaman 295 Mar 22, 2007 09:53 PM

ok well actually a five cause i like the intro guitar 2 lick so there you go.

guest
You may want to rate the tab now too:
select rating
Wanna post a correction for this tab? Suggest correction