Oops, an error
Loading. Please wait.
We have an official Breakeven tab made by UG professional guitarists. Check out the tab »
×
227 views 1 this week
no commentswrite comment
1 2 3 4 5
2 more votes to show rating
add to favorites
launch autoscroll
font size
0
reset
guitar tuner
×
Best way to learn
"Breakeven"
Autoscroll
slow
fast
+/-
esc
set tempo
stop
---------------------------------------------------------------------------------------------------
                                     BREAKEVEN - THE SCRIPT
---------------------------------------------------------------------------------------------------
My interpretation of Breakeven by The Script.

Tabbed by: ~Technology.

Tuning: Standard EADG


Intro: 
4 bars rest, then, 0:10
  1 e 2 e 3 e 4 e 1 e 2 e 3 e 4 e 1 e 2 e 3 e 4 e 1 e 2 e 3 e 4 e   
G|----------------------------------------------------------------|
D|----------------3-3-3-5-5-5-5-5-----------------3-3-3-5-5-5-3-\\|
A|6-6-6\1-1-1-1-1-----------------6-6-6\1-1-1-1-1-----------------|
E|----------------------------------------------------------------|

Verse 1
16 bars rest, then

  1 e 2 e 3 e 4 e 1 e 2 e 3 e 4 e  
G|--------------------------------|
D|5-------------------------------|
A|------8-------------------------|
E|----------------6-----8---------|

Chorus 1
  1 e 2 e 3 e 4 e 1 e 2 e 3 e 4 e 1 e 2 e 3 e 4 e 1 e 2 e 3 e 4 e  
G|----------------------------------------------------------------|
D|----------------3-3-3-5-5-5-5-5-----------------3-3-3-5-5-5-3-\\|
A|6-6-6\1-1-1-1-1-----------------6-6-6\1-1-1-1-1-----------------| 
E|----------------------------------------------------------------| x2

Verse 2
8 bars rest, then
  1 e 2 e 3 e 4 e 1 e 2 e 3 e 4 e  
G|--------------------------------|
D|5-------------------------------|
A|------8-------------------------|
E|----------------6-----8---------|

Chorus 2
  1 e 2 e 3 e 4 e 1 e 2 e 3 e 4 e 1 e 2 e 3 e 4 e 1 e 2 e 3 e 4 e  
G|----------------------------------------------------------------|
D|----------------3-3-3-5-5-5-5-5-----------------3-3-3-5-5-5-3-\\|
A|6-6-6\1-1-1-1-1-----------------6-6-6\1-1-1-1-1-----------------| 
E|----------------------------------------------------------------| x3

Bridge
4 bars rest, then
  1 e 2 e 3 e 4 e 1 e 2 e 3 e 4 e 1 e 2 e 3 e 4 e 1 e 2 e 3 e 4 e   
G|----------------------------------------------------------------|
D|5-5-5-7-7-7-7-7-----------------5-5-5-7-7-7-7-7-----------------|
A|----------------------6-6-6-6-8-----------------------6-6-6-6-6-|
E|----------------6-6-6---------------------------6-6-6-----------|

  1 e 2 e 3 e 4 e 1 e 2 e 3 e 4 e  
G|--------------------------------|
D|--------------------------------|
A|6-6-6-6-6-6-6-6-6-6-6-6-6-6-6-6-|
E|--------------------------------|

6 bars rest
  1 e 2 e 3 e 4 e 1 e 2 e 3 e 4 e  
G|--------------------------------|
D|5-------------------------------|
A|------8-------------------------|
E|----------------6-----8---------|

Chorus 3
  1 e 2 e 3 e 4 e 1 e 2 e 3 e 4 e 1 e 2 e 3 e 4 e 1 e 2 e 3 e 4 e  
G|----------------------------------------------------------------|
D|----------------3-3-3-5-5-5-5-5-----------------3-3-3-5-5-5-3-\\|
A|6-6-6\1-1-1-1-1-----------------6-6-6\1-1-1-1-1-----------------| 
E|----------------------------------------------------------------| x3

Outro
  1 e 2 e 3 e 4 e 1 e 2 e 3 e 4 e 1 e 2 e 3 e 4 e 1 e 2 e 3 e 4 e  
G|----------------------------------------------------------------|
D|----------------3-3-3-5-5-5-5-5-----------------3-3-3-5-5-5-3-\\|
A|6-6-6\1-1-1-1-1-----------------6-6-6\1-1-1-1-1-----------------| 
E|----------------------------------------------------------------| Play till fade
Suggest correction
Give kudos to tab author, rate the tab!
1 2 3 4 5
comments
print report bad tab
guest
You may want to rate the tab now too:
select rating
Wanna post a correction for this tab? Suggest correction