Oops, an error
Loading. Please wait.

Breakeven Bass Tab

version 5
version 5

Interactive

2,589 views 9 this week
no commentswrite comment
1 2 3 4 5
please rate
add to favorites
launch autoscroll
font size
0
reset
guitar tuner
Tab Pro tools
  • play this tab
  • loop segment
  • change instrument
  • show fretboard
  • metronome
Autoscroll
slow
fast
+/-
esc
set tempo
stop
Contributor
Breakeven
The Script
Tabbed by: avill616@yahoo.com

For my nephew Arvin roy, its past 1 in the morning and I have a basketball game at 
6am. That's only four hours of sleep. Enjoy the tab.

Intro 
G|----------------|      |-----------------------|
D|-1--------------|      |-----------------------|
A|-----1----------|      |-------------1-1---3-3-|
E|----------1---3-|4x    |-3-3---1-1-------------|

Verse1 & 2 
G|-------------------|    |--------------|    |--------------------|
D|-------------------|    |--------------|    |--------------------|
A|----------1-1--3-3-|    |--------1---3-|    |--------1---3-3-3-3-|
E|-3-3--1-1----------|4x  |-3---1--------|3x  |-3---1--------------|

Chorus1 
G|----------------------------------|
D|-1-1-1-1--------------------------|
A|---------1-1-1-1------------------|
E|-----------------1-1-1-1--3-3-3-3-|4x

G|-----------------------|
D|-----------------------|
A|-------------1-1---3-3-|
E|-3-3---1-1-------------|

Verse3 
G|--------------|    |--------------------|
D|--------------|    |--------------------|
A|--------1---3-|    |--------1---3-3-3-3-|
E|-3---1--------|3x  |-3---1--------------|

Chorus2 
G|----------------------------------|
D|-1-1-1-1--------------------------|
A|---------1-1-1-1------------------|
E|-----------------1-1-1-1--3-3-3-3-|6x

Instrumental 
G|--------------|
D|--------------|
A|--------1---3-|
E|-3---1--------|2x

Bridge
G|----------------------------------|----------------------------|
D|---------3-3-3-3------------------|---------3-3-3-3------------|
A|-----------------1-1-1-1--3-3-3-3-|-----------------1(8)-3(16)-|
E|-3-3-3-3--------------------------|-3-3-3-3--------------------|

Verse4
G|-----------------------|    |----------------------------|
D|-----------------------|    |------------------------1-1-|
A|-------------1-1---3-3-|    |-----------1-1-1-1--3-3-----|
E|-3-3---1-1-------------|3x  |-3-3--1-1-------------------|

Chorus3
G|----------------------------------|
D|-1-1-1-1--------------------------|
A|---------1-1-1-1------------------|
E|-----------------1-1-1-1--3-3-3-3-|repeat till fade

comments
We did not receive enough feedback on this tab! Please rate:
print report bad tab
1 2 3 4 5
I want to post or [tab]
guest
You may want to rate the tab now too:
select rating
Please do not post tabs as comments. Select "correction" instead!