Oops, an error
Loading. Please wait.

Im Yours Tab

version 2
version 2

Whole song

Video

140,398 views 27 this week
8 commentsread comments
1 2 3 4 5
x 43
add to favorites
launch autoscroll
font size
0
reset
how to read this tab
guitar tuner
Autoscroll
slow
fast
+/-
esc
set tempo
stop
Help us to improve Ultimate-Guitar.com Take our survey!
×
Author
[Intro]

e|-----1-----0-----------3-|            e|-----------3-----3----|
B|---------------------1---|            B|---------1-----1---1--|
G|---3-----3-----0---0-----|     x3     G|-------0-----0--------|
D|-0-----0-----0-----------|            D|-0h2-3-------------3--|
A|-----------------3-------|            A|----------------------|
E|-------------------------|            E|----------------------|

[Verse 1]

e|-----1-----0-----------3-|            e|--------3-------3----|
B|---------------------1---|            B|------1-------1------|
G|---3-----3-----0---0-----|     x3     G|----0-------0--------|
D|-0-----0-----0-----------|            D|--3-------3----------|
A|-----------------3-------|            A|---------------------|
E|-------------------------|            E|---------------------|

e|-----1-----0-----------3-|            e|--------3--------3-------0-|
B|---------------------1---|            B|------1--------1-------1---|
G|---3-----3-----0---0-----|     x3     G|----0--------0-------0-----|
D|-0-----0-----0-----------|            D|--3--------3-------2-------|
A|-----------------3-------|            A|---------------------------|
E|-------------------------|            E|---------------------------|

[Chorus]

e|-----1-----0-----------3-|            e|--------3--------3-------0-|
B|---------------------1---|            B|------1--------1-------1---|
G|---3-----3-----0---0-----|     x3     G|----0--------0-------0-----|
D|-0-----0-----0-----------|            D|--3--------3-------2-------|
A|-----------------3-------|            A|---------------------------|
E|-------------------------|            E|---------------------------|

e|-----1-----0-----------3-|            e|--------3--------3-------0-|
B|---------------------1---|            B|------1--------1-------1---|
G|---3-----3-----0---0-----|     x3     G|----0--------0-------0-----|
D|-0-----0-----0-----------|            D|--3--------3-------2-------|
A|-----------------3-------|            A|---------------------------|
E|-------------------------|            E|---------------------------|


[Solo]

e|-----1-----0-----------0-----1-------1-----0-----------0-----1-------|                
B|-----------------1-------------------------------1-------------------|                
G|---2-----2-----2-----2-----2-------2-----2-----2-----2-----2---2-----|                
D|-0-----0-----0-----0-----0-----0-------------------------------------|                
A|---------------------------------3-----3-----3-----3-----3-----------|                
E|---------------------------------------------------------------------|

e|-----1-----0-----------0-----1-------------0-------------------------|                
B|-----------------1-------------------3-----------2-----3-------------|                
G|---------------------------------------------------------------------|                
D|---3-----3-----3-----3-----3-------2-----2-----2-----2---------------|                
A|-1-----1-----1-----1-----1-----1-0-----0-----0-----0-----------------|                
E|---------------------------------------------------------------------|


[Verse 2]

e|-----1-----0-----------3-|            e|--------3-------3----|
B|---------------------1---|            B|------1-------1------|
G|---3-----3-----0---0-----|     x3     G|----0-------0--------|
D|-0-----0-----0-----------|            D|--3-------3----------|
A|-----------------3-------|            A|---------------------|
E|-------------------------|            E|---------------------|

e|-----1-----0-----------3-|            e|--------3--------3-------0-|
B|---------------------1---|            B|------1--------1-------1---|
G|---3-----3-----0---0-----|     x3     G|----0--------0-------0-----|
D|-0-----0-----0-----------|            D|--3--------3-------2-------|
A|-----------------3-------|            A|---------------------------|
E|-------------------------|            E|---------------------------|


[Chorus]

e|-----1-----0-----------3-|            e|--------3--------3-------0-|
B|---------------------1---|            B|------1--------1-------1---|
G|---3-----3-----0---0-----|     x3     G|----0--------0-------0-----|
D|-0-----0-----0-----------|            D|--3--------3-------2-------|
A|-----------------3-------|            A|---------------------------|
E|-------------------------|            E|---------------------------|

e|-----1-----0-----------3-|            e|--------3--------3-------0-|
B|---------------------1---|            B|------1--------1-------1---|
G|---3-----3-----0---0-----|     x3     G|----0--------0-------0-----|
D|-0-----0-----0-----------|            D|--3--------3-------2-------|
A|-----------------3-------|            A|---------------------------|
E|-------------------------|            E|---------------------------|

[Solo]

e|-----1-----0-----------0-----1-------1-----0-----------0-----1-------|                
B|-----------------1-------------------------------1-------------------|                
G|---2-----2-----2-----2-----2-------2-----2-----2-----2-----2---2-----|                
D|-0-----0-----0-----0-----0-----0-------------------------------------|                
A|---------------------------------3-----3-----3-----3-----3-----------|                
E|---------------------------------------------------------------------|


e|-----1-----0-----------0-----1-------1-----0-----3-----1-----0-------|                
B|-----------------1---------------------------------------------------|                
G|---------------------------------------------------------------------|                
D|---3-----3-----3-----3-----3-------2-----2-----2-----2-----2---------|                
A|-1-----1-----1-----1-----1-----1-0-----0-----0-----0-----0-----------|                
E|---------------------------------------------------------------------|

        
e|-----1-----0-----------0-----1-------1-----0-----------0-----1-------|                
B|-----------------1-------------------------------1-------------------|                
G|---2-----2-----2-----2-----2-------2-----2-----2-----2-----2---2-----|                
D|-0-----0-----0-----0-----0-----0-------------------------------------|                
A|---------------------------------3-----3-----3-----3-----3-----------|                
E|---------------------------------------------------------------------|


e|-----1-----0-----------0-----1-------------0-------------------------|                
B|-----------------1-------------------3-----------2-----3-------------|                
G|---------------------------------------------------------------------|                
D|---3-----3-----3-----3-----3-------2-----2-----2-----2---------------|                
A|-1-----1-----1-----1-----1-----1-0-----0-----0-----0-----------------|                
E|---------------------------------------------------------------------|                
        
[Chorus]

e|-----1-----0-----------3-|            e|--------3--------3-----0---|
B|---------------------1---|            B|------1--------1-------1---|
G|---3-----3-----0---0-----|     x3     G|----0--------0---------2---|
D|-0-----0-----0-----------|            D|--3--------3-----------3---|
A|-----------------3-------|            A|-----------------------x---|
E|-------------------------|            E|-----------------------x---|



************************************

| h  Hammer-on
| x  Dead note 

************************************
Suggest correction
comments
print report bad tab
8 comments total. Showing first comments.
+2 reply
Hedd 10 Feb 01, 2009 10:36 AM

Great tab. Thanks for making it.

+1 reply
travh2007 10 Feb 17, 2009 03:30 PM

Works well. I changed the notes for use with a capo on the 5th fret, and it sounds great.

+3 reply
jayjay828 10 Feb 20, 2009 11:44 AM

ausome tab sounds with singing but wondering about the other guitars solo if someone could tab that. that would be sweet!

guest
You may want to rate the tab now too:
select rating
Wanna post a correction for this tab? Suggest correction