Oops, an error
Loading. Please wait.

Im Yours tab

version 4
version 4

Whole song

Video

202 views 3 this week
no commentswrite comment
1 2 3 4 5
3 more votes to show rating
add to favorites
×
Save as Personal and add changes to this tab that will be seen only by you. Learn more ›
×
You can save this tab as Personal to edit and correct it or add notes. All changes will be seen only by you. Learn more »
launch autoscroll
font size
0
reset
how to read this tab
guitar tuner
edit
Autoscroll
slow
fast
+/-
esc
set tempo
stop
About this tab version
The version on display is on point with every intermediate part. Was this info helpful? Yes No
-------------------------------------------------------------------------------
                            IM YOURS - THE SCRIPT
-------------------------------------------------------------------------------
Tabbed by: scott19hughes
E-mail: scott97hughes@hotmail.com

Tuning: standard// CAPO ON 5th FRET (FINGERTYLE)
   INTRO:
e|-----------------------------------------------------------------------------------------------------------|
B|-------------------3-------------------3----------------------3------------3------------3-------3----------|
G|------5--4------0--------5---4-------0-------------5--4-----0------------0------------0-------0------------|
D|----3--3--0--0---------3---3---0---0-----0h2h0---3--3--0--0------------0------------0-------0--------------|
A|-0---------2---------0-----------2-------------0--------2--------0h2h3--------0h2h3-------2----------------|
E|-----------------------------------------------------------------------------------------------------------|
   VERSE:
e|-----------------------------------------------------------------------------------------------------------|
B|-------------------3-------------------3----------------------3------------3------------3-------3----------|
G|------5--4------0--------5---4-------0-------------5--4-----0------------0------------0-------0------------|
D|----3--3--0--0---------3---3---0---0-----0h2h0---3--3--0--0------------0------------0-------0--------------|
A|-0---------2---------0-----------2-------------0--------2--------0h2h3--------0h2h3-------2----------------|
E|-----------------------------------------------------------------------------------------------------------|
  CHORUS:
e|-----------------------------------------------------------------------------------------------------------|
B|-------------------3-------------------3----------------------3------------3------------3-------3----------|
G|------5--4------0--------5---4-------0-------------5--4-----0------------0------------0-------0------------|
D|----3--3--0--0---------3---3---0---0-----0h2h0---3--3--0--0------------0------------0-------0--------------|
A|-0---------2---------0-----------2-------------0--------2--------0h2h3--------0h2h3-------2----------------|
E|-----------------------------------------------------------------------------------------------------------|
  BEFORE THE SECOND CHORUS:
e|-----------------------------------------------------------------------------------------------------------|
B|-----------------------------------------------------------------------------------------------------------|
G|------5---4---0---4---5-----5-----4-----0-----4-----5-----5-----4-----5-----2-----4-----1---2--------------|
D|----3---3---3---3---3-----0-----0-----0-----0-----0-----0-----0-----0-----0-----0-----0---0----------------|
A|-0---------------------------------------------------------------------------------------------------------|
E|------------------------3-----3-----3-----3-----3-----1-----1-----1-----0-----0-----0----------------------|
  2nd VERSE:
e|-----------------------------------------------------------------------------------------------------------|
B|-------------------3-------------------3----------------------3------------3------------3-------3----------|
G|------5--4------0--------5---4-------0-------------5--4-----0------------0------------0-------0------------|
D|----3--3--0--0---------3---3---0---0-----0h2h0---3--3--0--0------------0------------0-------0--------------|
A|-0---------2---------0-----------2-------------0--------2--------0h2h3--------0h2h3-------2----------------|
E|-----------------------------------------------------------------------------------------------------------|

  2ND CHORUS:
e|-----------------------------------------------------------------------------------------------------------|
B|-------------------3-------------------3----------------------3------------3------------3-------3----------|
G|------5--4------0--------5---4-------0-------------5--4-----0------------0------------0-------0------------|
D|----3--3--0--0---------3---3---0---0-----0h2h0---3--3--0--0------------0------------0-------0--------------|
A|-0---------2---------0-----------2-------------0--------2--------0h2h3--------0h2h3-------2----------------|
E|-----------------------------------------------------------------------------------------------------------|
 3rd VERSE:
e|-----------------------------------------------------------------------------------------------------------|
B|-------------------3-------------------3----------------------3------------3------------3-------3----------|
G|------5--4------0--------5---4-------0-------------5--4-----0------------0------------0-------0------------|
D|----3--3--0--0---------3---3---0---0-----0h2h0---3--3--0--0------------0------------0-------0--------------|
A|-0---------2---------0-----------2-------------0--------2--------0h2h3--------0h2h3-------2----------------|
E|-----------------------------------------------------------------------------------------------------------|
 (solo)3rd VERSE:
e|------------------------------------------------------------------------------------------------------------|
B|------------------------------------------------------------------------------------------------------------|
G|2-4-5-5-4-5-4-5-4-4-2-4-5-5-4-5-4-7-5-4-2-4-5-5-4-5-4-5-4-2-4-2-4-1-2-4-7H9(X10)7-5H7(X10)5-3H5(X10)3-2-4-1-2
D|------------------------------------------------------------------------------------------------------------|
A|------------------------------------------------------------------------------------------------------------|
E|------------------------------------------------------------------------------------------------------------|
  FINAL CHORUS:
e|-----------------------------------------------------------------------------------------------------------|
B|-------------------3-------------------3----------------------3------------3------------3-------3-------3--|
G|------5--4------0--------5---4-------0-------------5--4-----0------------0------------0-------0-------0----|
D|----3--3--0--0---------3---3---0---0-----0h2h0---3--3--0--0------------0------------0-------0-------2------|
A|-0---------2---------0-----------2-------------0--------2--------0h2h3--------0h2h3-------2-------3--------|
E|-----------------------------------------------------------------------------------------------------------|

***********************************

| /   slide up
| \   slide down
| h   hammer-on
| p   pull-off
| ~   vibrato
| +   harmonic
| x   Mute note
| b   Bend
| pb  Pre-bend
| br  Bend release
| pbr Pre-bend release
| brb Bend release bend

************************************
Suggest correction
Creating personal tab
Creating personal tab
You can edit any tab online and save it as your Personal.

You can edit, replace or remove any tab part or add personal notes – all changes will be seen only by you.

Personal tabs can be accessed anytime from any device, even offline.
Learn more »
Give kudos to tab author, rate the tab!
1 2 3 4 5
comments
print report bad tab
guest
You may want to rate the tab now too:
select rating
Wanna post a correction for this tab? Suggest correction