Oops, an error
Loading. Please wait.

No Words Chords

version 1
version 1

Whole song

13,489 views 9 this week
no commentswrite comment
1 2 3 4 5
x 5
add to favorites
launch autoscroll
font size
0
reset
transpose
0
reset
simplify chords
display chords
guitar tuner
Autoscroll
slow
fast
+/-
esc
set tempo
stop
Help us to improve Ultimate-Guitar.com Take our survey!
×
Author
-------------------------------------------------------------------------------
                             NO WORDS - The Script
-------------------------------------------------------------------------------
Tabbed by: Kamdude

Tuning: Standard

Okay, this is a pretty simple song, but it's fun to play. I'm not sure what the 
second chord is called so I called it A2. Here are the chords:


     A       A2      C#m     B
e|---0--------0-------0------0---------------------------------------|
B|---0--------0-------0------0---------------------------------------|
G|---2--------2-------6------4---------------------------------------|
D|---2--------2-------6------4---------------------------------------|
A|---0--------2-------4------2---------------------------------------|
E|-------------------------------------------------------------------|

(Verse 1) ( repeat A, A2)

             A                      A2                   A 
I could talk all day long about the news, givin' you the current affairs or 
    A2
my views. 
             A                      A2                   A
I could talk all night long about a song, givin' you the pointers on where 
             A2
you're goin' wrong. 
             A                       A2                   A
I could talk all year long about the net, sendin' you the links I think you 
             A2
haven't seen yet.
                     A                                A2 
I'd like to tell you things that I think you've never heard but there are no 
A      A2
words. 

             A                  A2                     A
I could talk all day long about dreams, sewing up your heart so you never see 
  A2
a seam. 
             A                 A2                  A
I could talk all day about politics, all of the corruption, clean hands, 
       A2
dirty tricks. 


(Bridge/Chorus)

               C#m ..     
But what can I say about something that blows me away without it soundin' 
              C#m ..
like another cliché? 
                                            B hold
From what I've seen and I've heard, when it comes to you, baby no, there are 
                 A      A2      A       A2
no, there are no words. 

C#m      B
Oooooooh Ooooooohh

             A      A2     A       A2
There are no words. 
C#m                                            B
Yeah I swear this much is true, there ain't no word in this world that describes you. 


Repeat.

(Verse 2) 
I could talk all day long about life, after so many wars how we're all still alive. 
I could speak all night long about the world, how it took me thirty years just to find one girl. 
I could shoot shit for days all about guitars, a Gibson or a Fender, it depends on who you are. 
But when I try to say somethin' that you never heard, there are no words. 


I could burn your ear off all about space and why we have a moon, why the moon has a face. 
If the earth is spinnin' why we all stay in place 
Why we can't walk walk, it's gotta be a space race. 

(Bridge/Chorus) 
But what can I say that’s gonna blow her mind away? 
Gotta write a classic not a throwaway. 
All I’ve seen, all I’ve heard, when it comes to you there are no, there are no, there are no words. 
There are no words. 
Yeah I swear this much is true, there ain't no word in this world to describe you. 
Yeah I swear this much is true, there ain't no word in this world that describes you. 

K the cello melodie in the background at this rap part goes like this: 

e|--------------------------------------------------------------|
B|------0--2-------------0--2--------------0--2-----------------|
G|----2----------------2-----------------2----------------------|
D|-----------x8----------------x4----------------x4-------------|
A|-0---------------4------------------2-------------------------|
E|--------------------------------------------------------------|

If you wanted to strum here you could strum these chords: 

e|---0----------0-----------0-------------------------------------|
B|---0----------0-----------0-------------------------------------|
G|---2----------2-----------2-------------------------------------|
D|---2----------2-----------2-------------------------------------|
A|---0----------4-----------2-------------------------------------|
E|----------------------------------------------------------------|



(Mark Sheehan Rap) 
There are no words to describe or define what’s inside you, your feeling, your vibe 
Believe me I’ve tried to break you down to a science 
(I) See you in my mind and I open my mouth and it’s silence 
I can articulate a Shakespeare poem 
Even though know I didn’t know him I can see where he was goin’ 
And where he’s comin’ from I can even catch his flow and then I think of you 
I don’t know where this metaphor is goin’ 
Cuz there ain’t no words you can understand, only lovers can 
You can ask the professor and the madman 
If they couldn’t find the words, no one can 
All I’ve seen, all I heard 
When it comes to you there’s just no, just no words 

(Ending) 
Yeah I swear this much is true, there ain't no word in this world that describes you 
That describes you. 
Yeah I swear this much is true, there ain't no word in this world that describes you. 
There ain’t no 
There ain’t no

Thanks for looking at my tab. rate it if you liked it!
Suggest correction
comments
print report bad tab
guest
You may want to rate the tab now too:
select rating
Wanna post a correction for this tab? Suggest correction