Oops, an error
Loading. Please wait.

Science And Faith Tab

version 4
version 4

Intro

Whole song

13 views 3 this week
no commentswrite comment
1 2 3 4 5
2 more votes to show rating
add to favorites
launch autoscroll
font size
0
reset
how to read this tab
guitar tuner
Autoscroll
slow
fast
+/-
esc
set tempo
stop
Help us to improve Ultimate-Guitar.com Take our survey!
×
Author
Difficulty
novice
About this tab version
This is what i could make of it. Was this info helpful? Yes No
[Intro]

e|----13-14-13----13-14-13----13-14-13-16-13-14-13---------------------------|
B|-14----------14----------14------------------------------------------------|
G|---------------------------------------------------------------------------|
D|---------------------------------------------------------------------------|  
A|---------------------------------------------------------------------------|
E|---------------------------------------------------------------------------|
                                                                                     
e|----13-14-13----13-14-13----13-14-13-16-13---------------------------------|
B|-14----------14----------14------------------------------------------------|
G|---------------------------------------------------------------------------|
D|---------------------------------------------------------------------------|  
A|---------------------------------------------------------------------------|
E|---------------------------------------------------------------------------|

This part is played twice in the intro
Suggest correction
Give kudos to tab author, rate the tab!
1 2 3 4 5
comments
print report bad tab
guest
You may want to rate the tab now too:
select rating
Wanna post a correction for this tab? Suggest correction